Song name
# A B C D E F G H I J K L M N O P Q R S T U V W X Y Z

Silverchair - Spawn Again tab

E------------------------------------------------I
B------------------------------------------------I
G------------------------------------------------I
D------------------------------------------------I
A-----6--5--5--(5)---0--5-(5)--0--5-(5)--0-----0-I
E--0---------------0-0---------0---------0--6--0-I REPEAT 2x

E------------------------------------------------I
B------------------------------------------------I
G------------------------------------------------I
D------------------------------------------------I
A-----6--5--5--(5)------5-(5)-----5-(5)----------I
E--0---------------0-0---------0--------0-6-0----I

E------------------------------------------------I
B------------------------------------------------I
G------------------------------------------------I
D-----------------------4-----5-----6------------I
A-----6--5--5--(5)------4-0-0-5-0-0-6-0----------I
E--0---------------0-0--4-0-0-5-0-0-6-0----------I
Tap to rate this tab
# A B C D E F G H I J K L M N O P Q R S T U V W X Y Z