Song name
# A B C D E F G H I J K L M N O P Q R S T U V W X Y Z

Silverchair - Petrol And Chlorine tab

----------------------------------------------------------------------------
	          Petrol & Chlorine (live) - Silverchair
----------------------------------------------------------------------------
Tabbed by:  JoHN Nicholas 4/6/07
Email:   john37steve@hotmail.com

Tuning:  Db Ab Db Ab Db Db

To get this, tune your low E down 1.5 steps, A and D strings down 0.5 steps each, G
up 0.5 a step, B string up 1 step, and high E down 1.5 steps.

Ok, before I get started, let me explain this was the first song I ever figured out for
just from listening and watching Daniel on the Live From Faraway Stables DVD. It’s also
the second tab I’ve ever written. As far as I’m aware there are no other tabs around for
song except for shitty versions in standard tunning. I know it still isn’t perfect
it sounds close enough. This sounds pretty good acoustically too that’s how I play it.
thing, the recording on Freakshow is done with every string tuned down half a step from
this is, however this is the tunning it is played in for live performances (at least on 
From Faraway Stables).


The chord formations will be there, listen to the song to get the strumming…
Shouldn’t be too hard if you get the tuning right and know the song…


Part 1

Db|-0---0---0---0----------------------------------------------------------|
Db|-0---0---0---0----------------------------------------------------------|
Ab|-5---4--/7---5----------------------------------------------------------|
Db|-0---0---0---0----------------------------------------------------------|
Ab|-0---0---0---0----------------------------------------------------------|
Db|-0---0---0---0----------------------------------------------------------|

Part 2

Db|-1---1---10-10/12-10-8-8/10-8-6-6/8-6-4-4/6-4-2-2/4-2-0---1---1---------|
Db|-1---1---10-10/12-10-8-8/10-8-6-6/8-6-4-4/6-4-2-2/4-2-0---1---1---------|
Ab|-3---1------------------------------------------------0---3---1---------|
Db|-3---1----------------------------------------------------3---1---------|
Ab|-1---1----------------------------------------------------1---1---------|
Db|------------------------------------------------------------------------|

Part 3

Db|------------------------------------------------------------------------|
Db|------------------------------------------------------------------------|
Ab|------------------------------------------------------------------------|
Db|-0---2---3---5---7---8---10---12----------------------------------------|
Ab|-0---2---3---5---7---8---10---12----------------------------------------|
Db|-0---2---3---5---7---8---10---12----------------------------------------|

Part 4

Db|--0---0---0---0---0---------0-------------------------------------------|
Db|--0---0---0---0---0---------0-------------------------------------------|
Ab|--0---0---0---0---0---------0-------------------------------------------|
Db|--0---3---2--/8---5---3-5-3-0-------------------------------------------|
Ab|--0---3---2--/8---5---3-5-3-0-------------------------------------------|
Db|--0---3---2--/8---5---3-5-3-0-------------------------------------------|

Part 5

Db|-7-7/9-7-7/10-9-7-7/9-7-0---7-7/9-7-7/10-9-9/12-12-12-0-----------------|
Db|-7-7/9-7-7/10-9-7-7/9-7-0---7-7/9-7-7/10-9-9/12-12-12-0-----------------|
Ab|------------------------0-----------------------------0-----------------|
Db|------------------------0-----------------------------0-----------------|
Ab|------------------------0-----------------------------0-----------------|
Db|------------------------0-----------------------------0-----------------|

Part 6

Db|------------------------------------------------------------------------|
Db|------------------------------------------------------------------------|
Ab|------------------------------------------------------------------------|
Db|-0---7---5---3---0---2---3---8---10---333-------------------------------|
Ab|-0---7---5---3---0---2---3---8---10---333-------------------------------|
Db|-0---7---5---3---0---2---3---8---10---333-------------------------------|

Part 7

Db|-0---0---0--------------------------------------------------------------|
Db|-0---0---0--------------------------------------------------------------|
Ab|-0---0---0--------------------------------------------------------------|
Db|-0---8---7--------------------------------------------------------------|
Ab|-0---8---7--------------------------------------------------------------|
Db|-0---8---7--------------------------------------------------------------|

Part 8

Db|-2-2/4-2-2/5-3-0------------------------------------0-------------------|
Db|-2-2/4-2-2/5-3-0------------------------------------2/4-----------------|
Ab|-------------------2h3p2p0--------------------------0-------------------|
Db|---------------------------4h5p4\2------------------2/4-----------------|
Ab|----------------------------------------------------0-------------------|
Db|----------------------------------------------------0-------------------|

                                  End on

Structure…

Part 1   x   2
Part 2   x   1
Part 1   x   3
Part 2   x   1
Part 3   x   1
Part 4   x   2
Part 5   x   2
Part 1   x   1
Part 6   x   4
Part 7   x   1
Part 4   x   2
Part 7   x   4
Part 8   x   4


Should sound alright, any questions or what no, just email me.

Sinking through dark black holes
It's never going to end
Open gash in my ribcage
Is never going to mend

Take another picture off the wall
Sinking deeper every time I fall

Each day ends quicker
And my mind gets slower too
As my life just fades away
I wouldn't have a clue

Take another drawer out from the shelf
I'm too weak to do it by myself

Though you had the world at your feet
You could see it, I was blind
Had the perfect job called life
You didn't like it, you resigned

Brain's a square of grass
Growing on petrol and chlorine

With petrol and chlorine
You could see it, I was blind
Had the perfect job called life
You didn't like it, you resigned

With petrol and chlorine
You know just what I mean
With petrol and chlorine
You know just what I mean
Tap to rate this tab
# A B C D E F G H I J K L M N O P Q R S T U V W X Y Z