Song name
# A B C D E F G H I J K L M N O P Q R S T U V W X Y Z

Silverchair - Warmth tab

The Warmth
By Incubus
Tabbed by: KoRny Freak 
standard tuning

*1/2 - Bend half of a step

Verse w/clean tone, flanger and delay
|-----------------------------19----|
|--19^--17----17--------------------|
|----------19----19---17--16-----16-|
|-----------------------------------|
|-----------------------------------|
|-----------------------------------|
  1/2

Chorus w/clean tone, flanger and delay
|--12--12-12-12-12-12-8--8-8-8-8-8-3--3-3-3-3-3-3--0-3-0--0-0-0-0-|
|--12--12-12-12-12-12-8--8-8-8-8-8-3--3-3-3-3-3-3--0-3-0--0-0-0-0-|
|-----------------------------------------------------------------|
|-----------------------------------------------------------------|
|-----------------------------------------------------------------|
|-----------------------------------------------------------------|

Bridge w/distortion, delay and flanger
|----------------------------------|
|----------------------------------|
|----------------------------------|
|--9-7-9-7-9-7-7-9-9-7-9-7-9-7-7-7-|
|----------------------------------|
|----------------------------------|

Last Chorus w/distortion, and delay
|------------------------------------------------------------|
|------------------------------------------------------------|
|--9--9-9-9-9-9-9-x-x-5--5-5-5-x-----------------------------|
|--9--9-9-9-9-9-9-x-x-5--5-5-5-x-5--5-5-5-5-5-5-x-x-2--2-2-2-|
|--7--7-7-7-7-7-7-x-x-3--3-3-3-x-5--5-5-5-5-5-5-x-x-2--2-2-2-|
|--------------------------------3--3-3-3-3-3-3-x-x-0--0-0-0-|

After repeating the above 2x,
Gtr 2 comes in with this: w/clean tone, flanger &delay
|-------------------------7---|
|--7^--5---5------------------|
|--------7---7---5--4---4---4-|
|-----------------------------|
|-----------------------------|
|-----------------------------|
  1/2

I am almost 100% positive that this is right but
if you have any questions or comments email me at 
silverchair_surfing_bird@hotmail.com




_________________________________________________________________
Get your FREE download of MSN Explorer at http://explorer.msn.com/intl.asp



Tap to rate this tab
 
# A B C D E F G H I J K L M N O P Q R S T U V W X Y Z