Song name
# A B C D E F G H I J K L M N O P Q R S T U V W X Y Z

Silverchair - Freak tab

silverchair freak

drop d tunning
4/4
moderate rock 120

explanation 2/4 means slide from 2 to 4
x is played as ghost notes

this is 100% the right tabs
have a lot of fun

intro/verse
distortion

e---------------------------------------------------------------------------|
B---------------------------------------------------------------------------|
G---------------------------------------------------------------------------|
D---------------------------------------------------------------------------|
A--2---0-2-2---2--2--2-0-0-0--2---2---0-0-0--2---0-2-2---2---2---2---0-0-0-|
D--2---0-2-2---2--2--2--0-0-0--2---2---0-0-0--2---0-2-2---2---2---2---0-0-0-|

3x (1xintro ; 2x verse)
pre chorus
distortion

e------------------------------------------------------------------|
B------------------------------------------------------------------|
G------------------------------------------------------------------|
D------------------------------------------------------------------|
A--0---3/4-4---0---0---3/4-4-4-4-4---0---3/4-4---0---0---3/4---4/6-|
D--0---3/4-4---0---0---3/4-4-4-4-4---0---3/4-4---0---0---3/4---4/6-|

e------------------------------------------------------------------------|
B------------------------------------------------------------------------|
G------------------------------------------------------------------------|
D------------------------------------------------------------------------|
A--0---3/4-4---0---0---3/4-4-4-4-4---0---3/4-4---0---0---3/4---4---x---x-|
D--0---3/4-4---0---0---3/4-4-4-4-4---0---3/4-4---0---0---3/4---4 --x---x-|



(one stroke for 4/4)
  I
  V

e-0--------------------------------------------------------------------------------|
B-0--------------------------------------------------------------------------------|
G-2--------------------------------------------------------------------------------|
D-3--------------------------------------------------------------------------------|
a-3--------------2---(1/8pause)---0---2---2---(1/8pause)---2---2---2/3---3---3---0-|
d-3--------------2---(1/8pause)---0---2---2---(1/8pause)---2---2---2/3---3---3---0-|

2x

chorus (2nd chorus is rockier with distortion dont worry)

clean tone

e--------------------------------------------------------------------------------------------|
B--------------------------------------------------------------------------------------------|
G--------------------------------------------------------------------------------------------|
D--------3-----------5-----0-----4-----2-----0--------3-----------5-----0-----4-----2-----0--|
a-----3-----3-----3--------------------------------3-----3-----3-----------------------------|
d--3-----------3--------0-----0-----0-----0-----3-----------3--------0-----0-----0-----0-----|

e---------------------------------------------------------------------|
B---------------------------------------------------------------------|
G---------------------------------------------------------------------|
D--------3-----------5-----0-----4-----2-----0--------3-----------5---|
a-----3-----3-----3--------------------------------3-----3-----3------|
d--3-----------3--------0-----0-----0-----0-----3-----------3---------|

at then end of the second it follows with

e----------|
B----------|
G----------|
d----------|
a--------0-|
d-0---0--0-|

repeat all once then finish with

e----------------------|
b----------------------|
G----------------------|
d----------------------|
a--0------3/4--4--4--0-|
d--0------3/4--4--4--0-|

bridge
distortion on

e-------------------------------------------------------------------------------------------|
b-------------------------------------------------------------------------------------------|
G-------------------------------------------------------------------------------------------|
d-------------------------------------------------------------------------------------------|
a-5----5--2--5--2--5--4---4--4--4--4--4--4--4--5----5--2--5--2--5--4---4--4--4--4--4--4--4--|
d-5----5--2--5--2--5--4---4--4--4--4--4--4--4--5----5--2--5--2--5--4---4--4--4--4--4--4--4--|

e-------------------------------------------------------------------------------------------|
b-------------------------------------------------------------------------------------------|
G-------------------------------------------------------------------------------------------|
d-------------------------------------------------------------------------------------------|
a-5----5--2--5--2--5--4---4--4--4--4--4--4--4--5----5--2--5--2--5--4---4--4--4--4--4--4--4--|
d-5----5--2--5--2--5--4---4--4--4--4--4--4--4--5----5--2--5--2--5--4---4--4--4--4--4--4--4--|

e-----------------------------------------------------------------------------------------|
b-----------------------------------------------------------------------------------------|
G-----------------------------------------------------------------------------------------|
d-- P.M the a4 and d4
a---4--4--4--4--4--4--4--x--x-|
d---4--4--4--4--4--4--4--x--x-|

here comes another "as cool as you" part

e-------------------------------------------------------------------|
b-------------------------------------------------------------------|
G-------------------------------------------------------------------|
d-------------------------------------------------------------------|
a-2---(1/8pause)---0---2---2---(1/8pause)---2---2---2/3---3---3---0-|
d-2---(1/8pause)---0---2---2---(1/8pause)---2---2---2/3---3---3---0-|

chorus2
distortion on
important notice: ALL HERE ON THIS SECTION IS PLAYED PALM MUTED

e------------------------------------------------------------------------------------------------|
b------------------------------------------------------------------------------------------------|
G------------------------------------------------------------------------------------------------|
d--------------5--5------------------------------------------------------------------------------|
a-3---3--3--3--3--3--0--0--0--0--0--0--0--0----0--3---3--3--3--------0--0--0--0--0--0--0--0----0-|
d-3---3--3--3--------0--0--0--0--0--0--0--0----0--3---3--3--3--------0--0--0--0--0--0--0--0----0-|

e--------------------------------------------------------------------|
b--------------------------------------------------------------------|
G--------------------------------------------------------------------|
d--------------5--5--------------------------------------------------|
a-3---3--3--3--3--3--0--0--0--0--0--0--0--0----0--3---3--3--3--------|
d-3---3--3--3--------0--0--0--0--0--0--0--0----0--3---3--3--3--------|


guitar solo

there is one guitar who plays exactly the same as chorus two but this time no P.M

another has 14/16 b fret 10 ; 2/16  g fret 11 then 16/16 g fret 11 and repeat this 2
times as it might be the same lenght as the other


there comes another chorus with distortion and the P.M power chords and then the 
outro is following


outro
distortion on

e------------------------------------------------------------------------------------------------|
b------------------------------------------------------------------------------------------------|
g----------------------------------------------------------------------3-------------------------|
d----------------------------------------------------------------------2-------------------------|
a-2---------0---2--2-----------2--2--------2-------0--0--0-------------2/2-----------------------|
d-2---------0---2--2-----------2--2--------2-------0--0--0-------------2/2-----------------------|
Tap to rate this tab
# A B C D E F G H I J K L M N O P Q R S T U V W X Y Z