Guitaretab - guitar tabs
Song name
# A B C D E F G H I J K L M N O P Q R S T U V W X Y Z

Silverchair - World Upon Your Shoulders tab

---------------------------------------------------------------------------
                World Upon Your Shoulders - Silverchair
---------------------------------------------------------------------------
Tabbed by: All call me pete
Email: kaztro@lycos.de


Tuning: standard

intro
e|-------7-7-0-3/5-3-3-2/3-2---7-7/8-10-3/5-3-3-2-0---------------------|
B|-------8-8-0-3-3-3-3-0-0-0---8-8-8-8---3-3-3-------3-5-----------------|
G|-----0---0------------------0--------------------------2-0--------------|
D|-----------------------------------------------------------0-1----------|
A|------------------------------------------------------------------------|
E|------------------------------------------------------------------------|
[ Tab from: http://www.guitaretab.com/s/silverchair/29791.html ]
verse
e|------0----0----0----0----0----0----0----0----0----0----|
B|------0----3----7----5----0----3----7----0----3----5----|
G|------4----4----6----4----4----4----6----4----4----4----|
D|------2----4----7----5----2----4----7----2----4----5----|
A|------x----2----5----3----x----2----5----x----2----3----|
E|--------------------------------------------------------|

Bridge1
e|---0-3-0-3--|
B|---3-1-3-1--|
G|---2-0-2-0--|
D|---0-2-0-2--|
A|---2-0-2-0--|
E|---------------|

chorus
e|----3-3-3-0--|          |--0-2-0---0----------|
B|----3-1-1-3--|          |--------3------------|
G|----2-0-0-0--|          |------------2-0------|
D|----0-2-2-0--|after that|----------------0-1--|
A|----0-0-3-2--|          |---------------------|
E|----2-x---3--|          |---------------------|

bridge2
e|-0-0-0-0-0-------------8-------------3-----5--------------------0-0-0-0-|
B|-3-1-3-1-1---------5/7/8-0-3/5-1-0-1---0-1----------------------0-3-0-1-|
G|-0-0-0-0-0------------------------------------------------------4-4-4-0-|
D|-5-2-5-2-2-------2---------------------------2/9/12\6-2-----0---2-4-2-2-|
A|-6-3-6-3-0-3-2-0-2---------------------------2/7/10\4---4-2---2-0-2-0-0-|
E|-----------------0---------------------------0------------------------0-|

I know it's not right at all, but play it and you'll hear it sounds ok.
It sounds good on acoustic, too.
Related for World Upon Your Shoulders tab