Song name
# A B C D E F G H I J K L M N O P Q R S T U V W X Y Z

Silverchair - Those Thieving Birds Pt 1strange Behaviourthose Thieving Birds Pt 2 tab

Tuning: standard(capo on the 4th fret)

Thanks to Mr. Moustache for tabing the Strange Behaviour part:)

The whole song is relative to capo:)




Those Thieving Birds part ( the riff is 100% acccurate, just like Daniel is playing it live:)

E|--------------------------------------------------------|
B|-----------0-----------------0-----------------3--------|
G|--------0-----0-----------0-----0-----------0-----0-----|
D|-----2-----------2-----2-----------2-----2-----------2--|
A|--0-----------------4-----------------3-----------------|
E|--------------------------------------------------------|



E|--------------------------------------------------------|
B|-----------3-----------------3-----------------3--------|
G|--------0-----0-----------0-----0-----------0-----0-----|
D|-----2-----------2-----2-----------2-----2-----------2--|
A|--3-----------------3-----------------3-----------------|
E|--------------------------------------------------------|



E|--------------------------------------------------------|
B|-----------1-----------------1-----------------0--------|
G|--------2-----2-----------2-----2-----------2-----0-----|
D|-----0-----------0-----0-----------0-----0-----------0--|
A|--------------------------------------------------------|
E|--2-----------------2-----------------3-----------------|



E|--------------------------------------------------------|
B|-----------0-----------------3-----------------3--------|
G|--------2-----2-----------0-----0-----------0-----0-----|
D|-----0-----------0-----2-----------2-----2-----------2--|
A|--2-----------------3-----------------3-----------------|
E|--------------------------------------------------------|


Those thieving birds
Hang strung from an empty nest
This swan plagued pond
Foresaken and under whelmed
Those leaving words
Hang strong from an emptiness
Hang strong from an emptiness
Those thieving birds
Hang strung from an empty nest




C        F  G        Am/A(11)
This is tearing me apart
       D7
If the sun won't shine
   G                    Fm
Forever will never be fine
C     F  G             Am/A(11)
Underneath the hollow ground
       D7
Lies a night time sky
    G                   Fm
For only a desperate eye

*("When I'm paranoid" section) play this 3x.

||---------------------3--3--2--2--1---1---1-1-1--1---1-1-1-----||
||---------------------3--3--2--2--1---1---1-1-1--1---1-1-1-----||
||--7--9--7--4--4-4----4--4--3--3--2---2---2-2-2--1---1-1-1-----||
||---------------------5--5--4--4--3---3---3-3-3--3---3-3-3-----||
||--5--7--5--2--2-2----5--5--4--4--3---3---3-3-3--3---3-3-3-----||
||---------------------3--3--2--2--1---1---1-1-1--1---1-1-1-----||

When I'm paranoid I see walls behind walls behind walls
When I'm overjoyed I see falls over falls over falls
When I'm all alone I'll be wary and careful to

Fm
Only eat with uncles
Never talk to strangers
God is in the Kitchen
Faking baby dangers

C - F - G - Am/A
D7
G - Fm

C           F  G        Am/A
Change what ever karma means
        D7               G                   Fm
For the only things that end never truly begin

(Same basic chords but let them ring up until you get to the Am)

C                         F  G  Am
If this streets air ain't up to par
                                   D7
I'll take my clothes and take this strange behaviour
G             F
Not only liked but loved aswell
If this streets air ain't up to par
I'll take my clothes and take this strange behaviour
Not only liked but loved aswell

("When I'm paranoid" section repeats)

If this streets air ain't up to par
I'll take my clothes and take this strange behaviour
Not only liked but loved aswell
If this streets air ain't up to par
I'll take my clothes and take this strange behaviour
Not only liked but loved aswell
If this keeps tearing me apart
The walls come down won't stop this empty feeling
For everything apart from this

C         F#m(#5)
Lonely in life
C       Gadd9
Dead or alive
G                D7(11) D7
If the truth had incurs-ions
C           F#m(#5)
No more goodbyes
C           Gadd9
No more big lies
G6               D7(11) D7
If the truth had vers - ions
C                  F#M(#5) C        Gadd9
As long as you and I are   together
G6                 B
I'll hold onto the jewellery
Em                   F#m(#5)           G6
Like staple strapped clenched fist and tongs


(Repeat the Those Thieving Birds part)

Hang strung from an empty nest
Those thieving birds
Hang strung from an empty nest
Tap to rate this tab
# A B C D E F G H I J K L M N O P Q R S T U V W X Y Z