Song name
# A B C D E F G H I J K L M N O P Q R S T U V W X Y Z

Silverchair - Anas Song tab

#----------------------------------PLEASE NOTE--------------------------------#
#This file is the author's own work and represents their interpretation of the#
#song. You may only use this file for private study, scholarship, or research.#
#-----------------------------------------------------------------------------#
#-- File created with Instab - http://www.pconline.com/~smcarey/instab.html --#
#-----------------------------------------------------------------------------#

Author/Artist: Silverchair
Title: Ana's Song
\ slide down
/ slide up

Standard Tuning

------|-------------------------------------------------|--|------------------|
------|-------------------------------------------------|--|------------------|
------|-------------------------------------------------|--|------------------|
------|-8--8--8--8-8-5--5--5--5-5-5--5--3--5---5--3-----|--|------------------|
------|-6--6--6--6-6-3--3--3--3-3-5--5--3--5---5--3--3/-|--|------------------|
------|-x--x--x--x-x-x--x--x--x-x-x--x--x--x---x--x-----|--|------------------|
       Verse G1

------|-------------------------------|--|-----------|------------------------|
------|-------------------------------|--|-6---------|------------------------|
------|-------------------------------|--|-x---------|------------------------|
------|-------------------------------|--|-8----3----|------------------------|
------|-------------------------------|--|-8----3----|------------------------|
------|-6-6-15--16--15--\-8--10-vv-\--|--|-x----x----|------------------------|
       Verse G2

------|-0---0-------|--|------------------------------------------------------|
------|-0---0-------|--|------------------------------------------------------|
------|-x---x---2---|--|------------------------------------------------------|
------|-2---4---2---|--|------------------------------------------------------|
------|-2---4---0---|--|------------------------------------------------------|
------|-x---x---x---|--|------------------------------------------------------|
       Chorus Chords Strum

------|---------------------------------------------|--|----------------------|
------|---------------------------------------------|--|----------------------|
------|---------------------------------------------|--|----------------------|
------|-x--x--x--x-x-x--x--x--x-x-x--x--x--x--x-----|2x|----------------------|
------|-6--6--6--6-6-3--3--3--3-3-5--5--3--5--5-----|--|----------------------|
------|-6--6--6--6-6-3--3--3--3-3-3--3--3--3--3--6--|--|----------------------|
       PreVerse Riff G1

------|---------------------------|-------------------------------------------|
------|---------------------------|-------------------------------------------|
------|---------------------------|-------------------------------------------|
------|-----5--6--5--\------------|-------------------------------------------|
------|-1-1------------3--5-vv-\--|-------------------------------------------|
------|---------------------------|-------------------------------------------|
       PreVerse G2

-------|--------------------------------|-------------|
-------|--------------------------------|-------------|
-------|--------------------------------|-------------|
-------|-x--x--x-x-x--x--x--x--x-x-x--x-|-------------|
-------|-6--6--6-6-6--6--5--5--5-5-5--5-|-------------|
-------|-6--6--6-6-6--6--3--3--3-3-3--3-|-------------|
        Verse 2 Mid Riff



--|----------------------------------|----------------------------------|--|--|
--|----------------------------------|----------------------------------|--|--|
--|-------------------------------4--|-------------------------------4--|--|--|
--|-------------------------------3--|-------------------------x--x--3--|--|--|
--|-3--3--3--3--5--5--5--5--7--7-----|-3--3--3--3--5--5--5--5--2--2-----|--|--|
--|----------------------------------|-------------------------0--0-----|--|--|
   Bridge

------|--------------------------|--------------------------------------------|
------|----------------------5---|--------------------------------------------|
------|-----3-------2------4-----|--------------------------------------------|
------|---3---3---3------2-------|--------------------------------------------|
------|-1------------------------|--------------------------------------------|
------|---------1------0---------|--------------------------------------------|
       Bridge End

------|--|-------|------------------|--|---------------|----------------------|
------|--|-------|------------------|--|---------------|----------------------|
------|--|-------|------------------|--|---------------|----------------------|
------|--|-------|-2-2-2--0-0-0--0--|--|---------------|----------------------|
------|--|-------|-3-3-3--x-x-x--0--|--|---------------|----------------------|
------|--|-------|-x-x-x--3-3-3--x--|--|---------------|----------------------|
          Chorus                         End on Chorus
Tap to rate this tab
# A B C D E F G H I J K L M N O P Q R S T U V W X Y Z