Song name
# A B C D E F G H I J K L M N O P Q R S T U V W X Y Z

Silverchair - Anas Song Open Fire tab

Verse (Acoustic Guitar)
|------------------------------------------------------------------------------|
|--6-6-6--4-4-4-4-4---------------------6-6-6-6-6--4-4-4-4-4-------------------|
|--8-8-8--5-5-5-5-5--3-3-3-3-3-3-3-3----8-8-8-8-8--5-5-5-5-5--3-3-3-3-3-3-3-3--|
|--8-8-8--5-5-3-5-5--5-5-5-5-3-5-5-3----8-8-8-8-8--5-5-3-5-5--5-5-5-5-3-5-5-3--|
|--6-6-6--3-3-3-3-3--5-5-5-5-3-5-5-3----6-6-6-6-6--3-3-3-3-3--5-5-5-5-3-5-5-3--|
|--6-6-6--3-3-3-3-3--3-3-3-3-3-3-3-3----6-6-6-6-6--3-3-3-3-3--3-3-3-3-3-3-3-3--|

|----------------------------------------------------------------------------------|
|--6-6-6-6-6--4-4-4-4-4---------------------6-6-6-6-6--4-4-4-4-4-------------------|
|--8-8-8-8-8--5-5-5-5-5--3-3-3-3-3-3-3-3----8-8-8-8-8--5-5-5-5-5--3-3-3-3-3-3-3-3--|
|--8-8-8-8-8--5-5-3-5-5--5-5-5-5-3-5-5-3----8-8-8-8-8--5-5-3-5-5--5-5-5-5-3-5-5-3--|
|--6-6-6-6-6--3-3-3-3-3--5-5-5-5-3-5-5-3----6-6-6-6-6--3-3-3-3-3--5-5-5-5-3-5-5-3--|
|--6-6-6-6-6--3-3-3-3-3--3-3-3-3-3-3-3-3----6-6-6-6-6--3-3-3-3-3--3-3-3-3-3-3-3-3--|

Verse (Electric Guitar 2)
|---------------------------------------|
|----------------4---------3-------3----|
|------8-----------5----3---3--------3--|
|----8---8----5-------------------------|
|--6--------3---------------------------|
|---------------------3--------3--------|

Verse End (Electric Guitar 1)
|----------------------------------------------------------------------------------|
|--6-6-6-6-6--4-4-4-4-4---------------------6-6-6-6-6--4-4-4-4-4-------------------|
|--8-8-8-8-8--5-5-5-5-5--3-3-3-3-3-3-3-3----8-8-8-8-8--5-5-5-5-5--3-3-3-3-3-3-3-3--|
|--8-8-8-8-8--5-5-3-5-5--5-5-5-5-3-5-5-3----8-8-8-8-8--5-5-3-5-5--5-5-5-5-3-5-5-3--|
|--6-6-6-6-6--3-3-3-3-3--5-5-5-5-3-5-5-3----6-6-6-6-6--3-3-3-3-3--5-5-5-5-3-5-5-3--|
|--6-6-6-6-6--3-3-3-3-3--3-3-3-3-3-3-3-3----6-6-6-6-6--3-3-3-3-3--3-3-3-3-3-3-3-3--|

Verse End (Electric Guitar 2)
|----------------------------------------------------------------|
|----------------------------------------------------------------|
|----------------------------------------------------------------|
|----------------------------------------------------------------|
|--1-1/10-10-11-10-11-10\3-3/5\1--1-1/10-10-11-10-11-10\3-3/5\1--|
|----------------------------------------------------------------|

Pre-Chorus (Electric Guitar 1)
|------------------------------|
|------------------------------|
|--3-3-3-3-3-3-3--2-2-2-2-2-2--|
|--3-3-3-3-3-3-3--3-3-3-3-3-3--|
|--1-1-1-1-1-1-1--3-3-3-3-3-3--|
|-----------------1-1-1-1-1-1--|

Chorus (Electric Guitar 1)
|----------0-----0----------0--------0---------0-------0-------0-------0--|
|----------0-----0----------0-------0----------0-------0-------0-------0--|
|----------1-----1----------1-------1--2-2-2-2-2-2-2-2-2-2-2-2-2-2-2-2-2--|
|--2-2-2-2-2-2-2-2--2-2-2-2-2-2-2-2-2--2-2-2-2-2-2-2-2-2-2-2-2-2-2-2-2-2--|
|--2-2-2-2-2-2-2-2--0-0-0-0-0-0-0-0-0--0-0-0-0-0-0-0-0-0-0-0-0-0-0-0-0-0--|
|--0-0-0-0-0-0-0-0--2-2-2-2-2-2-2-2-2-------------------------------------|

|----------0-------0----------0-------0-----|
|----------0-------0----------0-------0-----|
|----------1-------1----------1-------1--2--|
|--2-2-2-2-2-2-2-2-2--2-2-2-2-2-2-2-2-2--2--|
|--2-2-2-2-2-2-2-2-2--0-0-0-0-0-0-0-0-0--0--|
|--0-0-0-0-0-0-0-0-0--2-2-2-2-2-2-2-2-2-----|

Post-Chorus (Electric Guitar 1)
|------------------------------------------------------------------------------|
|--6-6-6--4-4-4-4-4---------------------6-6-6-6-6--4-4-4-4-4-------------------|
|--8-8-8--5-5-5-5-5--3-3-3-3-3-3-3-3----8-8-8-8-8--5-5-5-5-5--3-3-3-3-3-3-3-3--|
|--8-8-8--5-5-3-5-5--5-5-5-5-3-5-5-3----8-8-8-8-8--5-5-3-5-5--5-5-5-5-3-5-5-3--|
|--6-6-6--3-3-3-3-3--5-5-5-5-3-5-5-3----6-6-6-6-6--3-3-3-3-3--5-5-5-5-3-5-5-3--|
|--6-6-6--3-3-3-3-3--3-3-3-3-3-3-3-3----6-6-6-6-6--3-3-3-3-3--3-3-3-3-3-3-3-3--|

Post-Chorus (Electric Guitar 2)
|---------------------------------------------------|
|---------------------------------------------------|
|--<5>----------------------------------------------|
|-------<5>-<5>-------------------------------------|
|--------------------1-1/10-10-11-10-11-10\3-3/5\1--|
|---------------------------------------------------|

Verse (Electric Guitar 1)
|------------------------|
|------------------------|
|--8-8-8-8---------------|
|--8-8-8-8--5-5-3-5-5-3--|
|--6-6-6-6--5-5-3-5-5-3--|
|--6-6-6-6--3-3-3-3-3-3--|

Verse End (Electric Guitar 1)
|------------------------------------------------------------------------------|
|--6-6-6--4-4-4-4-4---------------------6-6-6-6-6--4-4-4-4-4-------------------|
|--8-8-8--5-5-5-5-5--3-3-3-3-3-3-3-3----8-8-8-8-8--5-5-5-5-5--3-3-3-3-3-3-3-3--|
|--8-8-8--5-5-3-5-5--5-5-5-5-3-5-5-3----8-8-8-8-8--5-5-3-5-5--5-5-5-5-3-5-5-3--|
|--6-6-6--3-3-3-3-3--5-5-5-5-3-5-5-3----6-6-6-6-6--3-3-3-3-3--5-5-5-5-3-5-5-3--|
|--6-6-6--3-3-3-3-3--3-3-3-3-3-3-3-3----6-6-6-6-6--3-3-3-3-3--3-3-3-3-3-3-3-3--|

Verse End (Electric Guitar 2)
|----------------------------------------------------------------|
|----------------------------------------------------------------|
|----------------------------------------------------------------|
|----------------------------------------------------------------|
|--1-1/10-10-11-10-11-10\3-3/5\1--1-1/10-10-11-10-11-10\3-3/5\1--|
|----------------------------------------------------------------|

Pre-Chorus (Electric Guitar 1)
|--------------------------------------------|
|--------------------------------------------|
|--3-3-3-3-3-3-3-3-3-3--2-2-2-2-2-2-2-2-2-2--|
|--3-3-3-3-3-3-3-3-3-3--3-3-3-3-3-3-3-3-3-3--|
|--1-1-1-1-1-1-1-1-1-1--3-3-3-3-3-3-3-3-3-3--|
|-----------------------1-1-1-1-1-1-1-1-1-1--|

Chorus (Electric Guitar 1)
|----------0-----0----------0-------0----------0-------0-------0------------------|
|----------0-----0----------0-------0----------0-------0-1-1-1-1------------------|
|----------1-----1----------1-------1--2-2-2-2-2-2-2-2-2-2-2-2-2--5-5-5-----------|
|--2-2-2-2-2-2-2-2--2-2-2-2-2-2-2-2-2--2-2-2-2-2-2-2-2-2-2-2-2-2--5-5-5--5-5-5-5--|
|--2-2-2-2-2-2-2-2--0-0-0-0-0-0-0-0-0--0-0-0-0-0-0-0-0-0-0-0-0-0--3-3-3--5-5-5-5--|
|--0-0-0-0-0-0-0-0--2-2-2-2-2-2-2-2-2------------------------------------3-3-3-3--|

|--------0-------0----------0-------0----------0-------0-------0------------------|
|--------0-------0----------0-------0----------0-------0-1-1-1-1------------------|
|--------1-------1----------1-------1--2-2-2-2-2-2-2-2-2-2-2-2-2--5-5-5-----------|
|--2-2-2-2-2-2-2-2--2-2-2-2-2-2-2-2-2--2-2-2-2-2-2-2-2-2-2-2-2-2--5-5-5--5-5-5-5--|
|--2-2-2-2-2-2-2-2--0-0-0-0-0-0-0-0-0--0-0-0-0-0-0-0-0-0-0-0-0-0--3-3-3--5-5-5-5--|
|--0-0-0-0-0-0-0-0--2-2-2-2-2-2-2-2-2------------------------------------3-3-3-3--|

Bridge (Electric Guitar 1)
|----------------------------------------------------------------------|
|----------------------------------------------------------------------|
|--5-5-5-5-5--7-7-7-7-7--9-9-9-9-----5-5-5-5-5--7-7-7-7-------------3--|
|--5-5-5-5-5--7-7-7-7-7--9-9-9-9--8--5-5-5-5-5--7-7-7-7--2-2-2-2-2--2--|
|--3-3-3-3-3--5-5-5-5-5--7-7-7-7--7--3-3-3-3-3--5-5-5-5--2-2-2-2-2--1--|
|---------------------------------6----------------------0-0-0-0-0-----|

|---------------------------------------------------------------0------|
|-------------------------------------------------------------------0--|
|--5-5-5-5-5----------------------3-------3----------------------------|
|--5-5-5-5-5--3-3-3-3-3--2-2-2-2--2-----3---3------3-------------------|
|--3-3-3-3-3--3-3-3-3-3--2-2-2-2--1---1----------3----3-------2--------|
|-------------1-1-1-1-1--0-0-0-0----------------1----------0-----------|

Chorus (Electric Guitar 1)
|--------------------------0-----0------------0-------0----------0-------0-------0--|
|--------------------------0-----0------------0-------0----------0-------0-1-1-1-1--|
|--5-5-5-------------------1-----1------------1-------1--2-2-2-2-2-2-2-2-2-2-2-2-2--|
|--5-5-5--5-5-5-5--2-2-2-2-2-2-2-2-2--2-2-2-2-2-2-2-2-2--2-2-2-2-2-2-2-2-2-2-2-2-2--|
|--3-3-3--5-5-5-5--2-2-2-2-2-2-2-2-2--0-0-0-0-0-0-0-0-0--0-0-0-0-0-0-0-0-0-0-0-0-0--|
|---------3-3-3-3--0-0-0-0-0-0-0-0-0--2-2-2-2-2-2-2-2-2-----------------------------|

|--------------------------0-----0------------0-------0----------0-------0-------0--|
|--------------------------0-----0------------0-------0----------0-------0-1-1-1-1--|
|--5-5-5-------------------1-----1------------1-------1--2-2-2-2-2-2-2-2-2-2-2-2-2--|
|--5-5-5--5-5-5-5--2-2-2-2-2-2-2-2-2--2-2-2-2-2-2-2-2-2--2-2-2-2-2-2-2-2-2-2-2-2-2--|
|--3-3-3--5-5-5-5--2-2-2-2-2-2-2-2-2--0-0-0-0-0-0-0-0-0--0-0-0-0-0-0-0-0-0-0-0-0-0--|
|---------3-3-3-3--0-0-0-0-0-0-0-0-0--2-2-2-2-2-2-2-2-2-----------------------------|

|--------------------------0-----0----------0-------0--0--|
|--------------------------0-----0----------0-------0--0--|
|--5-5-5-------------------1-----1----------1-------1--2--|
|--5-5-5--5-5-5-5--2-2-2-2-2-2-2-2--2-2-2-2-2-2-2-2-2--2--|
|--3-3-3--5-5-5-5--2-2-2-2-2-2-2-2--0-0-0-0-0-0-0-0-0--0--|
|---------3-3-3-3--0-0-0-0-0-0-0-0--2-2-2-2-2-2-2-2-2-----|

End (Electric Guitar 1)
|--------------------------0-----0----------0-------0--0--|
|--------------------------0-----0----------0-------0--0--|
|--5-5-5-------------------1-----1----------1-------1--2--|
|--5-5-5--5-5-5-5--2-2-2-2-2-2-2-2--2-2-2-2-2-2-2-2-2--2--|
|--3-3-3--5-5-5-5--2-2-2-2-2-2-2-2--0-0-0-0-0-0-0-0-0--0--|
|---------3-3-3-3--0-0-0-0-0-0-0-0--2-2-2-2-2-2-2-2-2-----|
Tap to rate this tab
# A B C D E F G H I J K L M N O P Q R S T U V W X Y Z