Song name
# A B C D E F G H I J K L M N O P Q R S T U V W X Y Z

Silverchair - Calling Out Our Name tab

intro
e-------------------------||
B---5--5------------------||
G---5--5---5--5-----------||
D---3--3---5--5-----------||
A----------3--3-----------||
E-------------------------||

verse
e----------------X--X--X--X---||
B---5--5---------X--X--2--2---||
G---5--5---5--5--X--X--2--2---||
D---3--3---5--5--2--2--2--2---||
A----------3--3--2--2--0--0---||
E----------------0--0--X--X---||

chorus
e--------------------------X--X--X--X---||
G--9--9--------9--9--------X--X--2--2---||
B--9--9--9--9--9--9--9--9--X--X--2--2---||
G--7--7--9--9--7--7--9--9--0--0--2--2---||
D--------7--7--------7--7--2--2--X--2---||
A--------------------------2--2--X--2---||
E-----------------------------------0---||
Tap to rate this tab
# A B C D E F G H I J K L M N O P Q R S T U V W X Y Z