Guitaretab - guitar tabs
Song name
# A B C D E F G H I J K L M N O P Q R S T U V W X Y Z

Silverchair - Luv Your Life tab

Song: Luv Your Life
Artist: silverchair
Album: Diorama
Track #: 8
tabbed by Diggi Schrader
diggischrader@hotmail.co.uk

full credit to Rodrigo for providing the chords
(in standard tuning) to the lyrics
all I've done is learn how to play those chords
on a guitar tuned as Daniel's is

Tuning: (low to high) FCGDGd
swap the g- & d-strings around for best effect
also if you want, change the b-string for a g-

you'll notice I don't often use the high d string
this is because I take that string
Daniel keeps it on but rarely uses it
if you want to use it, use the same fret
as the lower d-string

 chords

  Cmaj(1) Cmaj(2) Cmaj(3) Cmaj7
d---------------------------------|
G--12-------0------5-------12-----|
D--10-------2------5-------9------|
G--9--------0------0-------9------|
C--0--------0------0-------0------|
F-----------2---------------------|

  Fmaj(1) Fmajb5 Fmaj6 Fmaj(2) Fmaj(3) Fm
d------------------------------------------|
G--10------10-----7-----2-------5-------1--|
D--7-------9------7-----3-------3-------3--|
G--10------7------7-----2-------5-------1--|
C--0-------0------5-----0-------0-------0--|
F--0-------0------0-----0-------0-------0--|

  Gmaj(1) Am  Ebmaj
d--0-------2--------|
G--0-------2----0---|
D--5-------2----8---|
G--7-------2----0---|
C--7-------0----10--|
F--6-------4----10--|

  C#maj F#maj Gmaj(2) G#maj Bmaj Bbmaj
d-------------------------------------------|
G-------------------------------------------|
D---11----4-----5--------6---9-----8--------|
G---10----3-----4--------5---8-----7--------|
C---8-----1-----2--------3---6-----5--------|
F---8-----1-----2--------3---6-----5--------|


Chorus

Cmaj(1)
 You don't know the truth
Cmaj7       Fmaj(1)
 and I love your life
Cmaj(1)
 And you don't know the truth
Cmaj7       Fmaj(1)
 and I love your life


Fill 1

Fmaj(1) Fmajb5 Fmaj6 Fmaj(2)


Verse 1

Cmaj(2)
Thrust the candle
            Fm          Cmaj(2)
to the dark of your disease
Cmaj(2)
Burn the fishplate
        Fm       Cmaj(2)
Execute ill memories
Cmaj(2)
Labyrynth of sympathy
               Fm             Fmaj(2)
In which I'm lost and can't leave

[ Tab from: http://www.guitaretab.com/s/silverchair/44077.html ]
Fill 2
d----------------------------------------------|
G----------------------------------------------|
D--3-3-3--3/5-5-5/7---3-3-3--5/7-7-7/9---------|
G--2-2-2--2/4-4-4/5---2-2-2--4/5-5-5/7---------|
C--0-0-0--0---0-0-----0-0-0--0---0-0-----------|
F--0-0-0--0---0-0-----0-0-0--0---0-0-----------|


Verse 2

Cmaj(2)
And too much truth
            Fm         Cmaj(2)
Over shadows the time lies
Cmaj(2)
Coz what lies beneath the clouds
       Fm            Cmaj(2)
is an altered perception
Cmaj(2)
And i'll pay for sanity
           Fm            Fmaj(2)
But sanity don't come cheap


Fill 2
d----------------------------------------------|
G----------------------------------------------|
D--3-3-3--3/5-5-5/7---3-3-3--5/7-7-7/9---------|
G--2-2-2--2/4-4-4/5---2-2-2--4/5-5-5/7---------|
C--0-0-0--0---0-0-----0-0-0--0---0-0-----------|
F--0-0-0--0---0-0-----0-0-0--0---0-0-----------|


Chorus

Cmaj(1)
 You don't know the truth
Cmaj7       Fmaj(1)
 and I love your life
Cmaj(1)
 And you don't know the truth
Cmaj7       Fmaj(1)
 and I love your life


Fill 1
Fmaj(1) Fmajb5 Fmaj6 Fmaj(2)


Post-Chorus

Gmaj(1) Am Fmaj(2) Cmaj(3)
Du Du du.....


Alternate Chorus

(piano based chorus)
Cmaj(1)
 You don't know the truth
Cmaj7       Fmaj(1)
 and I love your life
Cmaj(1)
 And you don't know the truth
Cmaj7       Fmaj(1)
 and I love your life


Interlude

Ebmaj                                  Fmaj(1 or 2)
Flinch against the fire but this ain't winter
                 Ebmaj
And I'm all by myself the way I wanna be
                        Fmaj(1 or 2)   Bbmaj
Where I'm content to be to be all by myself
                             Cmaj(3)
But frozen eyes are bound to melt


Post-Chorus

Gmaj(1) Am Fmaj(2) Cmaj(3)
Du Du du.....


Altered Chorus

Cmaj(1)
 You don't know the truth
Cmaj7       Fmaj(1)
 and I love your life
Cmaj(1)
 And you don't know the truth
Cmaj7       Fmaj(1)
 and I love your life
Cmaj(1)                Cmaj        Fmaj(1)    C#
 And you don't know the truth and I love your life

F#maj

Fmaj(2) F#maj Gmaj(2)


Outro 1

Cmaj(1)              Fmaj(1)
 You dont know the truth

Am Gmaj(2) Fmaj(2)

x3, then

Cmaj(1)                 Fmaj(1)               C#maj
 And you don't know the truth and I love your life

F#maj

Fmaj(2) F#maj Gmaj(2)


Outro 2

Cmaj(1)              Fmaj(1)
 You dont know the truth

Am Gmaj(2) Fmaj(2)

x3, then

Cmaj(1)                  Fmaj(1)    Bmaj  Bbmaj Fmaj(2)
 And you dont know the truth...........................


Outro 3

F#maj Gmaj(2) G#maj
Fmaj(2) F#maj Gmaj(2)
Related for Luv Your Life tab