Guitaretab - guitar tabs
Song name
# A B C D E F G H I J K L M N O P Q R S T U V W X Y Z

Silverchair - Greatest View tab

VERSE 1
A                  B7
You're the analyst, the fungus in my milk
A             Am     A              E
When you want no-one and you've got someone
A                          B7
Through the wind you crawl and laugh at burning dunes
     Bb               F    G
When no one else will ever see

PRE-CHORUS
Asus         A            C         D
Now that you know why you feel like you do
Asus                  A                C        D
They're turning their head whilst they wait for no-one
  Asus        A            C          D
And finally I know why you feel like letting go

 

CHORUS
A            Amaj           Bm
I'm watching you watch over me
                 D        Dm
And I've got the greatest view from here


[ Tab from: http://www.guitaretab.com/s/silverchair/44079.html ]
VERSE 2
A                           B7
Mistakes don't mean a thing if you don't regret them
A            Am     A            E
So pack your tactic toes for the winter
A                       B7
Chain a waterfall to burned and withered skin
C                D
No one else will ever see 

CHORUS
A            Amaj           Bm
I'm watching you watch over me
                 D        Dm
And I've got the greatest view from here


Guitar 1

e||---------------------------------------------------------|| x2
B||---------------------------------------------------------||
G||---------------------------------------------------------||
D||---------------------------------------------------------||
A||------12-11-10--7-10-9-7-------------3-------3--8-7-5-7--||
E||--0-0--------------------0-3-1--0-1---1-0-1--------------||

  
B||-8-8--8-8--8--|-8-8--8-8--8--|-8-8--8-8--8--|-8-8--8-8--8---|--------||
G||--------------|--------------|--------------|---------------|--------||
D||--------------|--------------|--------------|---------------|--------||
A||--------------|--------------|--------------|-------------8-|-7-5-7--||
E||--------------|--------------|--------------|---------------|--------||

Sorry i didnt do the intro........might do it another time
Related for Greatest View tab