Song name
# A B C D E F G H I J K L M N O P Q R S T U V W X Y Z

Silverchair - Anas Song Open Fire tab

**************************************
*SILVERCHAIR - ANA'S SONG (OPEN FIRE)*
**************************************

Album: Neon Ballroom (1999)
Tuning: Standard

Transcribed by Juan Angel De Camillis



*INTRO/VERSE

Gtr 1 (Acoustic)
e||----6-6-6-6------3---3-----|-------------------||
B||----6-6-6-6------4---4-----|-------3-----------||
G||-o--8-8-8-8------5---5---3-|-3-3-3-3---------o-||
D||-o--8-8-8-8-x-x--5-5-5-5-3-|-5-5-3-5-5-3-x---o-||x4
A||----6-6-6-6-x-x--3-3-3-3-3-|-5-5-3-5-5-3-x-x---||
E||----6-6-6-6-x-3--3-3-3-3---|-3-3-3-3-3-3-------||

Gtr 2 (Electric Clean)   
e|----------------------------|--------------------|
B|----------6------------4----|-----3-------3------|
G|----------8--------------5--|--------3--3---3----|
D|-------8-----8-\-5---5------|---5----------------|
A|-----6-------------3--------|-5------------------|
E|----------------------------|-3------------------|
Please die Ana
For as long as you're here we're not
You make the sound of laughter
And sharpened nails seem softer

_____________________________________________________________________
*PRE CHORUS

Lead Guitar (Distortion)                    x2      last time
||------------------------------------------------|----------| 
||------------------------------------------------|----------|
||-o--3-3-\-12-12-12--13-13--12-12-\-5-5-\-7-7--o-|---7-\----|
||-o--x-x---x--x--x---x--x---x--x----x-x-----x--o-|---x---x--|
||----1-1-\-10-10-10--11-11--10-10-\-3-3-\-5-5----|---5-\-x--|
||------------------------------------------------|----------|

And I need you now somehow (x2)

then both guitars
|-1-1-1-1---1-1-1-1---|
|-1-1-1-1---1-1-1-1---|
|-3-3-3-3-1-2-2-2-2-0-|
|-3-3-3-3-2-3-3-3-3-0-|
|-1-1-1-1-1-3-3-3-3-0-|
|-1-1-1-1---1-1-1-1---|


_____________________________________________________________________
*CHORUS

||----------0--0--------0--|--------0-----------0--0--|-------0-----------0--0----||
||----------0--0--------0--|--0--0--0-----------0--0--|-------0-----------0--0----||
||-o--------1--1--------1--|--2--2--2--2--2--2--2--2--|-2--2--2--2--2--2--2--2--o-||
||-o--2--2--2--2--2--2--2--|--2--2--2--2--2--2--2--2--|-2--2--2--2--2--2--2--2--o-||
||----2--2--2--2--2--2--2--|--x--x--x--x--x--x--x--x--|-0--0--0--0--0--0--0--0----||
||----0--0--0--0--0--0--0--|--2--2--2--2--2--2--2--2--|---------------------------||
Open fire on the needs designed
On my knees for you
Open fire on my knees desires
What I need from you

_____________________________________________________________________
*POST CHORUS/PRE VERSE

Gtr 1 (Distortion)
|--------------------------------|--------------------------------------||
|--------------------------------|--------------------------------------||
|-8-8-8-8-5-5-5-5----------------|----8-8-8-8-5-5-5-5-------------------||
|-8-8-8-8-5-5-5-5-5-5-3-5--5-3-5-|----8-8-8-8-5-5-5-5-5-5-3-5--5--------||
|-6-6-6-6-3-3-3-3-5-5-3-5--5-3-5-|----6-6-6-6-3-3-3-3-5-5-3-5--5-3------||
|-6-6-6-6-3-3-3.3-3-3-3-3--3-3-3-|----6-6-6-6-3-3-3-3-3-3-3-3--3-3------||

Gtr 1 (Distortion)
|--------------------------------|---------------------------------------------------||
|--------------------------------|---------------------------------------------------||
|-----------------3--------------|---3-3-\-12-12-12--13-13--12-12-12-\-5-5-\-7-7-\---||
|-----------------------1--------|---x-x---x--x--x----x--x---x--x--x---x-x-----x---x-||
|--------------------------------|---1-1-\-10-10-10--11-11--10-10-10-\-3-3-\-5-5-\-x-||
|--------------------------------|---------------------------------------------------||
       
_____________________________________________________________________
*VERSE 2

Gtr 1 (Clean)
e||----6-6-6-6------3---3-----|-------------------||
B||----6-6-6-6------4---4-----|-------3-----------||
G||-o--8-8-8-8------5---5---3-|-3-3-3-3---------o-||
D||-o--8-8-8-8-x-x--5-5-5-5-3-|-5-5-3-5-5-3-x---o-||
A||----6-6-6-6-x-x--3-3-3-3-3-|-5-5-3-5-5-3-x-x---||
E||----6-6-6-6-x-3--3-3-3-3---|-3-3-3-3-3-3-------||

Imagine a pageant
In my head the flesh seems thicker

(Distortion)
|------------------------------------|
|------------------------------------|
|-------x-----x----------------------|
|-8-8-8-x-8-8-x-8-8-x----------------|
|-6-6-6-x-6-6-x-6-6-x-5-5-3-5--5-3-5-|
|-------x-----x-----x-3-3-3-3--3-3-3-|
Sandpaper tears corrode the filth

_____________________________________________________________________
*PRE CHORUS

Lead Guitar (Distortion)                    x2      last time
||------------------------------------------------|----------| 
||------------------------------------------------|----------|
||-o--3-3-\-12-12-12--13-13--12-12-\-5-5-\-7-7--o-|---7-\----|
||-o--x-x---x--x--x---x--x---x--x----x-x-----x--o-|---x---x--|
||----1-1-\-10-10-10--11-11--10-10-\-3-3-\-5-5----|---5-\-x--|
||------------------------------------------------|----------|

And I need you now somehow (x2)

then both guitars
|-1-1-1-1-1-1-1-1---1-1-1-1-1-1-1-1---|
|-1-1-1-1-1-1-1-1---1-1-1-1-1-1-1-1---|
|-3-3-3-3-3-3-3-3-1-2-2-2-2-2-2-2-2-0-|
|-3-3-3-3-3-3-3-3-2-3-3-3-3-3-3-3-3-0-|
|-1-1-1-1-1-1-1-1-1-3-3-3-3-3-3-3-3-0-|
|-1-1-1-1-1-1-1-1---1-1-1-1-1-1-1-1---|


_____________________________________________________________________
*CHORUS

||----------0--0--------0--|--------0-----------0--0--|-------0-----------0--0-|-3-3-3-----------||
||----------0--0--------0--|--0--0--0-----------0--0--|-------0-----------0--0-|-3-3-3-----------||
||-o--------1--1--------1--|--2--2--2--2--2--2--2--2--|-2--2--2--2--2--2--2--2-|-0-0-0--0-0-0--o-|| x2
||-o--2--2--2--2--2--2--2--|--2--2--2--2--2--2--2--2--|-2--2--2--2--2--2--2--2-|-2-2-2--0-0-0--o-||
||----2--2--2--2--2--2--2--|--x--x--x--x--x--x--x--x--|-0--0--0--0--0--0--0--0-|-3-3-3--2-2-2----||
||----0--0--0--0--0--0--0--|--2--2--2--2--2--2--2--2--|------------------------|--------3-3-3----||

Open fire on the needs designed
On my knees for you
Open fire on my knees desires
What I need from you
_____________________________________________________________________
*BRIDGE 

|------------------------|------------------------|
|------------------------|------------------------|
|-5-5-5-5-7-7-7-7-9-9--9-|-5-5-5-5-7-7-7-7------3-|
|-5-5-5-5-7-7-7-7-9-9--8-|-5-5-5-5-7-7-7-7-2-2--2-|
|-3-3-3-3-5-5-5-5-7-7--7-|-3-3-3-3-5-5-5-5-2-2--1-|
|-3-3-3-3-5-5-5-5--------|-----------------0-0----|


|-------------------------|------------------------0--|
|-------------------------|----------------------0----|
|-5-5-5-5--------------3--|-----3---------------------|
|-5-5-5-5-3-3-3-3-2-2--2--|---3---3-----3-------------|
|-3-3-3-3-3-3-3-3-2-2--1--|-1---------3---3----2------|
|-3-3-3-3-1-1-1-1-0-0-----|---------1--------0--------|
                            |-> distortion off
And you're my obsession
I love you to the bones
And Ana wrecks your life
Like an Anorexia life


_____________________________________________________________________
*PRE CHORUS (This part is not exacly right but sounds good)
|---------0------------0-----------0-----|
|-------0---0--------0---0-----------0---|
|------------------2------------2--------|
|-----2----------2------------2----------|
|---2-----------------------0------------|
|-0--------0h1h2-------------------------|

Open fire on the needs designed
On my knees for you

_____________________________________________________________________
*LAST CHORUS

|-3-3-3--------|--------0--0--------0--|--------0-----------0--0--|-------0-----------0--0-|
|-3-3-3--------|--------0--0--------0--|--0--0--0-----------0--0--|-------0-----------0--0-|
|-0-0-0--0-0-0-|--------1--1--------1--|--2--2--2--2--2--2--2--2--|-2--2--2--2--2--2--2--2-|
|-2-2-2--0-0-0-|--2--2--2--2--2--2--2--|--2--2--2--2--2--2--2--2--|-2--2--2--2--2--2--2--2-|
|-3-3-3--2-2-2-|--2--2--2--2--2--2--2--|--x--x--x--x--x--x--x--x--|-0--0--0--0--0--0--0--0-|
|--------3-3-3-|--0--0--0--0--0--0--0--|--2--2--2--2--2--2--2--2--|------------------------|
Open fire on my knees desires
What I need from you


|-3-3-3--------|--------0--0--------0--|--------0-----------0--0--|-------0-----------0--0-|
|-3-3-3--------|--------0--0--------0--|--0--0--0-----------0--0--|-------0-----------0--0-|
|-0-0-0--0-0-0-|--------1--1--------1--|--2--2--2--2--2--2--2--2--|-2--2--2--2--2--2--2--2-|
|-2-2-2--0-0-0-|--2--2--2--2--2--2--2--|--2--2--2--2--2--2--2--2--|-2--2--2--2--2--2--2--2-|
|-3-3-3--2-2-2-|--2--2--2--2--2--2--2--|--x--x--x--x--x--x--x--x--|-0--0--0--0--0--0--0--0-|
|--------3-3-3-|--0--0--0--0--0--0--0--|--2--2--2--2--2--2--2--2--|------------------------|
Open fire on the needs designed


|-3-3-3--------|--------0--0--------0--|--------0-----------0--0--|-------0-----------0--0-|-0-|
|-3-3-3--------|--------0--0--------0--|--0--0--0-----------0--0--|-------0-----------0--0-|-0-|
|-0-0-0--0-0-0-|--------1--1--------1--|--2--2--2--2--2--2--2--2--|-2--2--2--2--2--2--2--2-|-2-|
|-2-2-2--0-0-0-|--2--2--2--2--2--2--2--|--2--2--2--2--2--2--2--2--|-2--2--2--2--2--2--2--2-|-2-|
|-3-3-3--2-2-2-|--2--2--2--2--2--2--2--|--x--x--x--x--x--x--x--x--|-0--0--0--0--0--0--0--0-|-0-|
|--------3-3-3-|--0--0--0--0--0--0--0--|--2--2--2--2--2--2--2--2--|------------------------|---|
Open fire on my knees desires                                                                *break, let ring
On my knees for you 

|-3-3-3--------|--------0--0--------0--|--------0-----------0--0--|-0-|
|-3-3-3--------|--------0--0--------0--|--0--0--0-----------0--0--|-0-|
|-0-0-0--0-0-0-|--------1--1--------1--|--2--2--2--2--2--2--2--2--|-2-|
|-2-2-2--0-0-0-|--2--2--2--2--2--2--2--|--2--2--2--2--2--2--2--2--|-2-|
|-3-3-3--2-2-2-|--2--2--2--2--2--2--2--|--x--x--x--x--x--x--x--x--|-0-|
|--------3-3-3-|--0--0--0--0--0--0--0--|--2--2--2--2--2--2--2--2--|---|

THE END
Tap to rate this tab
# A B C D E F G H I J K L M N O P Q R S T U V W X Y Z