Song name
# A B C D E F G H I J K L M N O P Q R S T U V W X Y Z

Silverchair - Cemetry tab

e|-------------------0---------------------------------------------|
a|-----1-0-----------0-0-------------------------------------------|
d|---0--0-0---0------0-0---0---------------------------------------|
g|---------------2---------0---------------------------------------|
b|-3---3-----3-----------2-----------------------------------------|
e|-------------0---0-----------------------------------------------|

e|-------------------0---------------------------------------------|
a|-----1-0-----------0-0-------------------------------------------|
d|---0--0-0---0------0-0---0---------------------------------------|
g|---------------2---------0---------------------------------------|
b|-3---3-----3-----------2-----------------------------------------|
e|-------------0---0-----------------------------------------------|

e|-------------------0---------------------------------------------|
a|-----1-0-----------0-0-------------------------------------------|
d|---0--0-0---0------0-0---0---------------------------------------|
g|---------------2---------0---------------------------------------|
b|-3---3-----3-----------2-----------------------------------------|
e|-------------0---0-----------------------------------------------|

e|-------------------0---------------------------------------------|
a|-----1-0-----------0-0-------------------------------------------|
d|---0--0-0---0------0-0---0---------------------------------------|
g|---------------2---------0---------------------------------------|
b|-3---3-----3-----------2-----------------------------------------|
e|-------------0---0-----------------------------------------------|

repeat this and ya can't go wrong
Tap to rate this tab
# A B C D E F G H I J K L M N O P Q R S T U V W X Y Z