Guitaretab - guitar tabs
Song name
# A B C D E F G H I J K L M N O P Q R S T U V W X Y Z

Silverchair - Anas Song Acoustic tab

                    TRANSCRIPTION BY GRANT MCBRIDE
                    (the_seventh_wave_@hotmail.com)        

Ana's Song (Open Fire) - Acoustic Version
Silverchair
Neon Ballroom

Transcribed by Grant McBride

TUNING - Standard (EADGBE)

KEY
x - muted string
* - special info pertaining to part

[Verse] 
|------------------------------|x6
|--8-8-8--4-4-4----------------|
|--8-8-8--5-5-5--3-3-3-3--3-3--|
|--8-8-8--5-5-5--5-5-3-5--5-3--|
|--6-6-6--3-3-3--5-5-3-5--5-3--|
|--6-6-6--3-3-3--3-3-3-3--3-3--|

Please die Ana
For as long as you're here we're not
You make the sound of laughter
And sharpened nails seem softer

And I need you now somehow
And I need you now somehow

[Bridge]
|----------------|
|----------------|
|--3-3-3--2-2-2--|
|--3-3-3--3-3-3--|
|--1-1-1--3-3-3--|
|---------1-1-1--|

[Chorus]
|------0-------0---------0-------0------0-------0-------0-------0--|
|------0-------0---------0-------0------0-------0-------0-------0--|
|------1-------1---------2-------2--2-2-2-2-2-2-2-2-2-2-2-2-2-2-2--|
|--2-2-2-2-2-2-2-----4-4-4-4-4-4-4--2-2-2-2-2-2-2-2-2-2-2-2-2-2-2--|
|--2-2-2-2-2-2-2-----x-x-x-x-x-x-x--0-0-0-0-0-0-0-0-0-0-0-0-0-0-0--|
|--0-0-0-0-0-0-0-0--2-2-2-2-2-2-2---------------------------------|


|------0-------0---------0-------0-----|
|------0-------0---------0-------0-----|
|------1-------1---------2-------2--2--|
|--2-2-2-2-2-2-2-----4-4-4-4-4-4-4--2--|
|--2-2-2-2-2-2-2-----x-x-x-x-x-x-x--0--|
|--0-0-0-0-0-0-0--0--2-2-2-2-2-2-2-----|

Open fire on the needs designed
On my knees for you
Open fire on my knees desires
What I need from you

[Verse] x4

Imagine a pageant
In my head the flesh seems thicker

|---------------------------|
|---------------------------|
|--8-8--8--8----------------|
|--8-8--8--8--5-5-3-5--5-3--|
|--6-6--6--6--5-5-3-5--5-3--|
|--6-6--6--6--3-3-3-3--3-3--|
*Accent these notes

Sandpaper tears corrode the filth

[Verse] x2

And I need you now somehow
And I need you now somehow

[Bridge] 
|------------------------------------|
|------------------------------------|
|--3-3-3-3-3-3-3-3-------------------|
|--3-3-3-3-3-3-3-3--3-3-3-3-3-3-3-3--|
|--1-1-1-1-1-1-1-1--3-3-3-3-3-3-3-3--|
|-------------------1-1-1-1-1-1-1-1--|


[Chorus] 
|------0-------0---------0-------0------0-------0-------|
|------0-------0---------0-------0------0-------0-1-1-1-| 
|------1-------1---------2-------2--2-2-2-2-2-2-2-2-2-2-| 
|--2-2-2-2-2-2-2-----4-4-4-4-4-4-4--2-2-2-2-2-2-2-2-2-2-| 
|--2-2-2-2-2-2-2-----x-x-x-x-x-x-x--0-0-0-0-0-0-0-0-0-0-| 
|--0-0-0-0-0-0-0--0-2-2-2-2-2-2-2----------------------| 

|---------------|
|---------------|
|--5-5-5--------|
|--5-5-5--5-5-5-|
|--3-3-3--5-5-5-|
|---------3-3-3-|

|------0-------0---------0-------0------0-------0-------|
|------0-------0---------0-------0------0-------0-1-1-1-| 
|------1-------1---------2-------2--2-2-2-2-2-2-2-2-2-2-| 
|--2-2-2-2-2-2-2-----4-4-4-4-4-4-4--2-2-2-2-2-2-2-2-2-2-| 
|--2-2-2-2-2-2-2-----x-x-x-x-x-x-x--0-0-0-0-0-0-0-0-0-0-| 
|--0-0-0-0-0-0-0--0-2-2-2-2-2-2-2----------------------| 
[ Tab from: http://www.guitaretab.com/s/silverchair/54433.html ]
|---------------|
|---------------|
|--5-5-5--------|
|--5-5-5--5-5-5-|
|--3-3-3--5-5-5-|
|---------3-3-3-|

Open fire on the needs designed
On my knees for you
Open fire on my knees desires
What I need from you

|--------------------------||--------------------------|
|--------------------------||--------------------------|
|--5-5-5-5-7-7-7-7-9-9--3--||--5-5-5-5-7-7-7-7------3--|
|--5-5-5-5-7-7-7-7-9-9--2--||--5-5-5-5-7-7-7-7-2-2--2--|
|--3-3-3-3-5-5-5-5-7-7--1--||--3-3-3-3-5-5-5-5-2-2--1--|
|--------------------------||------------------0-0-----|

|--------------------------||-------------------------0--|
|--------------------------||-----------------------0----|
|--5-5-5-5--------------3--||------3---------------------|
|--5-5-5-5-3-3-3-3-2-2--2--||----3---3-----3-------------|
|--3-3-3-3-3-3-3-3-2-2--1--||--1---------3---3----2------|
|----------1-1-1-1-0-0-----||----------1--------0--------|
                            
And you're my obsession
I love you to the bones
And Ana wrecks your life
Like an Anorexia life

[Bridge 2]

|-----------------------------------|
|-----------------------------------|
|--3-3-3-3-3-3-3-3------------------|
|--3-3-3-3-3-3-3-3-3-3-3-3-3-3-3-3--|
|--1-1-1-1-1-1-1-1-3-3-3-3-3-3-3-3--|
|------------------1-1-1-1-1-1-1-1--|

Open fire on the needs designed
On my knees for you

|----------------|
|----------------|
|--5-5-5---------|
|--5-5-5--5-5-5--|
|--3-3-3--5-5-5--|
|---------3-3-3--|
*Accent
[Chorus] 
|------0-------0---------0-------0------0-------0-------|
|------0-------0---------0-------0------0-------0-1-1-1-| 
|------1-------1---------2-------2--2-2-2-2-2-2-2-2-2-2-| 
|--2-2-2-2-2-2-2-----4-4-4-4-4-4-4--2-2-2-2-2-2-2-2-2-2-| 
|--2-2-2-2-2-2-2-----x-x-x-x-x-x-x--0-0-0-0-0-0-0-0-0-0-| 
|--0-0-0-0-0-0-0--0-2-2-2-2-2-2-2----------------------| 

|---------------|
|---------------|
|--5-5-5--------|
|--5-5-5--5-5-5-|
|--3-3-3--5-5-5-|
|---------3-3-3-|
*Accent
|------0-------0---------0-------0------0-------0-------|
|------0-------0---------0-------0------0-------0-1-1-1-| 
|------1-------1---------2-------2--2-2-2-2-2-2-2-2-2-2-| 
|--2-2-2-2-2-2-2-----4-4-4-4-4-4-4--2-2-2-2-2-2-2-2-2-2-| 
|--2-2-2-2-2-2-2-----x-x-x-x-x-x-x--0-0-0-0-0-0-0-0-0-0-| 
|--0-0-0-0-0-0-0--0-2-2-2-2-2-2-2----------------------| 

|---------------|
|---------------|
|--5-5-5--------|
|--5-5-5--5-5-5-|
|--3-3-3--5-5-5-|
|---------3-3-3-|
*Accent

|------0-------0---------0-------0--0--|
|------0-------0---------0-------0--0--|
|------1-------1---------2-------2--2--|
|--2-2-2-2-2-2-2-----4-4-4-4-4-4-4--2--|
|--2-2-2-2-2-2-2-----x-x-x-x-x-x-x--0--|
|--0-0-0-0-0-0-0--0--2-2-2-2-2-2-2-----|
                                    * let ring
|----------------|
|----------------|
|--5-5-5---------|
|--5-5-5--5-5-5--|
|--3-3-3--5-5-5--|
|---------3-3-3--|
*Accent
|------0-------0---------0-------0--0--|
|------0-------0---------0-------0--0--|
|------1-------1---------2-------2--2--|
|--2-2-2-2-2-2-2-----4-4-4-4-4-4-4--2--|
|--2-2-2-2-2-2-2-----x-x-x-x-x-x-x--0--|
|--0-0-0-0-0-0-0--0--2-2-2-2-2-2-2-----|
                                    * let ring
Open fire on my knees desires
What I need from you
Open fire on the needs designed
Open fire on my knees desires
On my knees for you
Related for Anas Song Acoustic tab