Song name
# A B C D E F G H I J K L M N O P Q R S T U V W X Y Z

Silverland - Been There tab

Verse

E---------------------------------------------------------------------------------|
B---------------------------------------------------------------------------------|
G---------4--------4--------4--------4--4------4--------4--------4--------4---4---|
D------5--------5--------5--------5----5----5--------5--------5--------5-----5----|
A---7--------7--------7--------7------6--5--------5--------5--------5-------4-----|
E---------------------------------------------------------------------------------|

-------------------------------------------------------------------------------|E
---------7---------------------------------------------------------------------|B
G---------5--------5--------5--------5--5------0--------0--------0--7----------|
D------5--------5--------5--------5----5----4--------4--------4-----7----------|
A---3--------3--------3--------3------4--5--------5--------5-------------------|
E------------------------------------------------------------------------------|

Chorus

Em G C D
Tap to rate this tab
 
# A B C D E F G H I J K L M N O P Q R S T U V W X Y Z