Song name
# A B C D E F G H I J K L M N O P Q R S T U V W X Y Z

Silverstein - Rain Will Fall tab

-------------------------------------------------------------------------------
			     Rain Will Fall- Silverstein
-------------------------------------------------------------------------------
Tabbed by:Ryan 
Email:wanrulz@msn.com	

Okay, so there arent really any tabs for this, and its an easy song that 
i play with my bro a lot, so here it goes. its not perfect, but sounds good
email any suggestions or comments.  

Tuning:Standard

Intro x2/Verse x3			     End of Verse x1
e|------------------------------------------|---------------------------------|
B|------------------------------------------|---------------------------------|
G|-4-/66-6-6-6-\44-4-4-4-44-4-4-/9\88-8/99--|-4-/66-6-6-6-\-44-4-4-4-4444444--|
D|-4-/66-6-6-6-\22-2-2-2-44-4-4-/x\xx-x/xx--|-4-/66-6-6-6-\-22-2-2-2-4444444--|
A|-2-/44-4-4-4-\22-2-2-2-22-2-2-/7\66-6/77--|-2-/44-4-4-4-\-22-2-2-2-2222222--|
E|------------------------------------------|---------------------------------|
		^^ I'm unsure about this part,     (And i couldn't bear...)
		it could be an E(221) too, 	    (And i don't wanna spend...)	
		but 422 sounds better

Chorus
e|----------------------------------------------------------------------------|
B|----------------------------------------------------------------------------|
G|-6-6-6-6-9-9-9-9-4-4-4-4-4-4-4-4-------1-(4-6)------------------------------|
D|-6-6-6-6-9-9-9-9-4-4-4-4-4-4-4-4-x2--6-2-(4-6)------------------------------|
A|-4-4-4-4-7-7-7-7-2-2-2-2-2-2-2-2-----6-2-(2-4)------------------------------|
E|-------------------------------------4--------------------------------------|
  (The rain will fall...)		>Go straight into Verse<	

Verse x3					End of verse x1
e|------------------------------------------|---------------------------------|
B|------------------------------------------|---------------------------------|
G|-4-/66-6-6-6-\44-4-4-4-44-4-4-/9\88-8/99--|-4-/66-6-6-6-\-44-4-4-4-4444444--|
D|-4-/66-6-6-6-\22-2-2-2-44-4-4-/x\xx-x/xx--|-4-/66-6-6-6-\-22-2-2-2-4444444--|
A|-2-/44-4-4-4-\22-2-2-2-22-2-2-/7\66-6/77--|-2-/44-4-4-4-\-22-2-2-2-2222222--|
E|------------------------------------------|---------------------------------|

Chorus
e|----------------------------------------------------------------------------|
B|----------------------------------------------------------------------------|
G|-6-6-6-6-9-9-9-9-4-4-4-4-4-4-4-4----6-6-6-6-9-9-9-9-4-4-4-4-4-4-4-4---------|
D|-6-6-6-6-9-9-9-9-4-4-4-4-4-4-4-4-x2-6-6-6-6-9-9-9-9-2-2-2-2-4-4-4-4-x2------|
A|-4-4-4-4-7-7-7-7-2-2-2-2-2-2-2-2----4-4-4-4-7-7-7-7-2-2-2-2-2-2-2-2---------|
E|----------------------------------------------------------------------------|
  (The rain will fall...)			


"Breakdown"/Post Chorus
Guitar 1		    Guitar 2 plays this under it
e|-------------------------|--------------------------------------------------|
B|-------------------------|--------------------------------------------------|
G|-------------------------|-6-6-6-6-9-9-9-9-4-4-4-4-4-4-4-4------------------|
D|-6-9-8-11-9-13-11-13-----|-6-6-6-6-9-9-9-9-2-2-2-2-4-4-4-4------------------|
A|-x-x-x-x--x-x--x--x---x2-|-4-4-4-4-7-7-7-7-2-2-2-2-2-2-2-2------------------|
E|-4-7-6-9--7-11-9--11-----|--------------------------------------------------|

Interlude
e|---------------------------------------------------------------------------|
B|---------------------------------------------------------------------------|
G|---------------------------------------------------------------------------|
D|---------------------------------------------------------------------------|
A|444--2-----------------444--22-------------------x5-(i think?)-------------|
E|-------0-0-022-4-0-24-----------4-0-0-22--4-0-2----------------------------|
not 100%, but a variation of this


Optional, this underneath ^that^ during the interlude
e|---------------------------------------------------------------------------|
B|---------------------------------------------------------------------------|
G|-6-6-6-6-9-9-9-9-4-4-4-4--------9-11-8-4-6---------------------------------|
D|-6-6-6-6-9-9-9-9-4-4-4-4-x4-----9-11-8-4-6---------------------------------|
A|-4-4-4-4-7-7-7-7-2-2-2-2--------7-9--6-2-4---------------------------------|
E|---------------------------------------------------------------------------|
				Play every second time after the first part

Chorus
e|----------------------------------------------------------------------------|
B|----------------------------------------------------------------------------|
G|-6-6-6-6-9-9-9-9-4-4-4-4-4-4-4-4----6-6-6-6-9-9-9-9-4-4-4-4-4-4-4-4---------|
D|-6-6-6-6-9-9-9-9-4-4-4-4-4-4-4-4-x2-6-6-6-6-9-9-9-9-2-2-2-2-4-4-4-4-x2------|
A|-4-4-4-4-7-7-7-7-2-2-2-2-2-2-2-2----4-4-4-4-7-7-7-7-2-2-2-2-2-2-2-2---------|
E|----------------------------------------------------------------------------|
  (The rain will fall...)			


End on
e|---------------|
B|---------------|
G|-6~-1~-4~------|
D|-6~-2~-2~------|
A|-4~-2~-2~------|
E|---------------|
  
There you go, its not 100% i know, but it should be pretty close, and it sounds
pretty much perfect if you play with the song:P	mess around with it a bit, and
you should be good. Email any suggestions or corrections. Have fun!		



| /  slide up
| \  slide down
| h  hammer-on
| p  pull-off
| ~  vibrato
| +  harmonic
| x  Mute note
===============================================================================
Tap to rate this tab
# A B C D E F G H I J K L M N O P Q R S T U V W X Y Z