Song name
# A B C D E F G H I J K L M N O P Q R S T U V W X Y Z

Silverstein - Rodeo Clown tab

Help us improve GuitareTab! Take a short survey!
Silverstein
Rodeo Clown
From Discovering The Waterfront (Special Edition)

Drop D tuning

No one had tabbed this song yet so i figured I would...it's not hard or anything but 
a cool tune.

Intro
Guitar 1
|--------2-2----------------|
|-5p44-22---2-44-5p44-24-0~-|
|---------------------------|
|---------------------------|
|---------------------------|
|---------------------------|
(those are 2's)

Guitar 2
|--------------------------|
|--------------------------|
|-6-6----------/444--------|
|-6-6----------/444--7//2~-|
|-4-4----------/222--7//2~-|
|--------------------7//2~-|

Chorus

Guitar 1
|--------2-2----------------|
|-5p44-22---2-44-5p44-24-0~-|
|---------------------------|
|---------------------------| 3x
|---------------------------|
|---------------------------|

Guitar 2
|---------------------|
|---------------------|
|-6~---4~-------------|
|-6~---4~---7~---2~---| 3x
|-4~---2~---7~---2~---|
|-----------7~---2~---|
(this isn't really lined up with guitar 1's part but the timing isn't hard to figure out 
all)

Verse 1
Both guitars
|-------------------------|
|-------------------------|
|-------------------4-----|
|-6-----7-----4-----4(8x)-| 3x
|-6(8x)-7(8x)-4(8x)-2-----|
|-6-----7-----4-----------|
PM*     *     *     *

|----------------------------|
|----------------------------|
|-----------------------4~---|
|-6-6666666~--7~---4~---4~---|
|-6-6666666~--7~---4~---2~---|
|-6-6666666~--7~---4~--------|
PM  *******

(Repeat Chorus)

Verse 2
Both Guitars
|-------------------------|
|-------------------------|
|-------------------4-----|
|-6-----7-----4-----4(8x)-| x2
|-6(8x)-7(8x)-4(8x)-2-----|
|-6-----7-----4-----------|
PM*     *     *     *

Guitar 1
|----------------------------|
|-----4-44-----4-44-----4-44-|
|----------------------------|
|----------------------------|
|----------------------------|
|----------------------------|

Guitar 2
|------------------------------|
|------------------------------|
|-------------------------4444-|
|-6666----7777----4444----4444-|
|-6666----7777----4444----2222-|
|-6666----7777----4444---------|
PM***     ***     ***     ***

Both Guitars
|----------------------------|
|----------------------------|
|-----------------------4~---|
|-6-6666666~--7~---4~---4~---|
|-6-6666666~--7~---4~---2~---|
|-6-6666666~--7~---4~--------|
PM  *******

Repeat Intro
Repeat Chorus 4x

That's all folks :) Enjoy!
Related for Rodeo Clown tab