Song name
# A B C D E F G H I J K L M N O P Q R S T U V W X Y Z

Silverstein - Apologize tab

Apologize by silverstein  EADGBe

Intro:G1
           X2
e------------------------  ---------------------------------------------|
B-----------2-------2---   -------2-----4--------2--------2-1----1------|
G------3-------3--------   -----3----3-----3------------3-------3----3--|
D----3---3-------3-----    -3----------------3------3-------------------|
A-1---------------------   ---------------------------------------------|
E------------------------   --------------------------------------------|

G2  Little riff in 0:29
e------------------------------------------------------|
B------------------------------------------------------|
G------------------------------------------------------|
D---8-8-8---8-8-8--8-8-8--6-6-6---6-6-6----------------|
A---8-8-8---8-8-8--8-8-8--6-6-6---6-6-6----------------|
E---6-6-6---6-6-6--6-6-6--4-4-4---4-4-4----------------|
      . .     . .   .  .    . .     . .
CHORUS: (  ~  is only 2 seconds) 0:44 to  0:56
G1
e--------------------------------|
B--------------------------*666--|(i΄m  not to sure about this)
G--------------------------*666--|
D----8888---4~-44----6666--*444--|
A----8888---4~-44----6666--------|
E----6666---2~-22----4444--------|

G2  RHYTHYM 0:44  to 0:56
                        X3
e---------------------------------------------------------------------|
B--------14----14-16--14-13-14-   ending of the rhythym is in G---12~-|
G---15-----15---------------------------------------------------------|
D---------------------------------------------------------------------|
A---------------------------------------------------------------------|
E---------------------------------------------------------------------|


1:00VERSE2 repeat intro g1
Verse G2
e---------------------------------------------|
B---------------------------------------------|
G---------------------------------------------|
D--8-8-8---6-6-6--4-4-4--6-6-6----------------|
A--8-8-8---6-6-6--4-4-4--6-6-6----------------|
E--6-6-6---4-4-4--2-2-2--4-4-4----------------|
        . .     . .    . .    . .
REPEAT CHORUS……………………

BREAKDOWN: repeat riffs of the chorus G1  without ~

SOLO:
e----------------------------------------------|
B----------------------------------------------|
G—9/10-/11/13/11/-9/10/8---8/9/10/11/10/9/8/6--|
D-x--x-- x--x--x--x--x-x---x-x--x--x--x-x-x-x--|
A—7/-8-/9-/11/-9-/7/-8/6---6/7/-8/-9/-8/7/6/4--|
E----------------------------------------------|


e-----------------------------------------------------|
B-----------------------------------------------------|
G—9/10-/11/13/11/-9/10/8----8/9/8/9/8/9—12/14/16/18---|
D-x--x--x---x--x--x--x-x--- x-x-x-x-x-x--x--x--x--x---|
A—7/-8-/9-/-11/9-/7/-8/6----6/7/6/7/6/7—10/12/14/16---|
E-----------------------------------------------------|
repeat the chorus of 0:44  the G1 chords andG2 rhythym

Ending 2:44
           X2
e--------------------------  .e------1~-------------|
B-----------2-------2--      B------2~--------------|
G------3-------3--------     G----------------------|
D----3---3-------3-----      D----------------------|
A-1---------------------     A----------------------|
E------------------------    E----------------------|
Tap to rate this tab
# A B C D E F G H I J K L M N O P Q R S T U V W X Y Z