Song name
# A B C D E F G H I J K L M N O P Q R S T U V W X Y Z

Silverstein - Born Dead tab

off their new album, shipwreck in the sand.
song can be heard on their myspace:

http://profile.myspace.com/index.cfm?fuseaction=user.viewProfile&friendID=164071

Drop D


|----------------------------------------------------------|
|----------------------------------------------------------|
|----------------------------------------------------------|
|---------------------------------------------------8~-----|
|-----7h10p7-6h9p6----6h9p6-8h11p8----7h10p7-6h9p6--8~-----|
|-11---------------11--------------11---------------8~-----|
  ..               ..              ..

|--------------------------------------------------------|
|--------------------------------------------------------|
|-11-11--11--10-10--10--66-666-6-444-3-4-4--777-8-10-----|
|--------------------------------------------------------|
|--9--9---9---8--8---8--44-444-4-222-1-2-2--555-6--8-----|
|--------------------------------------------------------|

|--------------------------------------------------------|
|--------------------------------------------------------|
|-11-11--11--10-10--10--66-666-4444444-7777777-----------|
|--------------------------------------------------------|
|--9--9---9---8--8---8--44-444-2222222-5555555-----------|
|--------------------------------------------------------|

|--------------------------------------------------------|
|--------------------------------------------------------|
|-11-11--11--10-10--10--66-666-6-444-3-4-4--777-8-10-----|
|--------------------------------------------------------|
|--9--9---9---8--8---8--44-444-4-222-1-2-2--555-6--8-----|
|--------------------------------------------------------|

|--------------------------------------------------------|
|--------------------------------------------------------|
|-11-11--11--10-10--10--66-666-6--4-4-4-4--7-7-7-7-------|
|--------------------------------------------------------|
|--9--9---9---8--8---8--44-444-4--2-2-2-2--5-5-5-5-------|
|--------------------------------------------------------|


|--------------------------------------------------------|
|--------------------------------------------------------|
|--------------------------------------------------------|
|-1~------1---/4-3---------------------------------------|
|-1~------1--------4-------------------------------------|
|-1~------1----------------------------------------------|

|--------------------------------------------------------|
|--------------------------------------------------------|
|--------------------------------------------------------|   (x2)
|-11-1--44-4--66-6--88888888-----------------------------|
|-11-1--44-4--66-6--88888888-----------------------------|
|-11-1--44-4--66-6--88888888-----------------------------|

thats all i have right now, the whole song isnt even out now, but i picked this 
part up really quick
Tap to rate this tab
 
# A B C D E F G H I J K L M N O P Q R S T U V W X Y Z