Song name
# A B C D E F G H I J K L M N O P Q R S T U V W X Y Z

Silverstein - Vices tab

Song is played in Drop Db / C#

Rest will be tabbed out soon.


Intro:

eb|----------------------------------------------|
Bb|----------------------------------------------|
Gb|----------------------------------------------|
Db|--x-x--0~--8-8--10-10-------------------------|
Ab|--x-x--0~--8-8--10-10-------------------------|
Db|--x-x--0~--8-8--10-10-------------------------|


eb|----------------------------------------------|
Bb|----------------------------------------------|
Gb|----------------------------------------------|
Db|--7h8-7h8-0--7h8-0--7h8-7h8-0-7h8-5555--------|
Ab|--7h8-7h8-0--7h8-0--7h8-7h8-0-7h8-5555--------|
Db|--7h8-7h8-0--7h8-0--7h8-7h8-0-7h8-5555--------|


Verse:

eb|---------------------------------------------|
Bb|---------------------------------------------|
Gb|---------------------------------------------|
Db|-0~----0~----8---10------0~----0~----8-10----|
Ab|-0~----0~----8---10------0~----0~----8-10----|
Db|-0~----0~----8---10------0~----0~----8-10----|


eb|---------------------------------------------|
Bb|---------------------------------------------|
Gb|---------------------------------------------|
Db|-0~---------8--7---10------------------------|
Ab|-0~---------8--7---10------------------------|
Db|-0~---------8--7---10------------------------|

greetz quAck

for questions: quack91@web.de or quack91 on www.ultimate-guitar.com
Tap to rate this tab
# A B C D E F G H I J K L M N O P Q R S T U V W X Y Z