Song name
# A B C D E F G H I J K L M N O P Q R S T U V W X Y Z

Silverstein - Falling Down tab

               ---------------------------------------------------
                        Silverstein - Falling Down
               ---------------------------------------------------

Tuning: Drop D

Key:
.-Palm Mute
~-Let Note Ring
x-Mute Note
/-Slide
b-bend note
H-Hammer On
p-Pull Off

Guitar 1
E----16---15------------------18--13--20b~------------------------|
B-13---13---13--16~--------16-------------------------------------|
G-----------------------------------------------------------------|
D-----------------------------------------------------------------| (x3)
A-----------------------------------------------------------------|
D-----------------------------------------------------------------|

Guitar 2
E------------------------------------------------------------------|
B------------------------------------------------------------------|
G------------------------------------------------------------------| (x3)
D-3--3-3-3---3-3h6------1-1-1-1-1-1--5-5-5--6-6-6--5-5-5--1-1-1----|
A-3--3-3-3---3-3h6-(x2)-1-1-1-1-1-1--5-5-5--6-6-6--5-5-5--1-1-1----|
D-3--3-3-3---3-3h6------1-1-1-1-1-1--5-5-5--6-6-6--5-5-5--1-1-1----|

Guitar 1
E------------------------------------------------------------------|
B------------------------------------------------------------------|
G------------------------------------------------------------------|
D-3-------5-------6--------1---------------------------------------|
A-3-(x10)-5-(x10)-6-(x16)--1-(x15)---------------------------------|
D-3-------5-------6--------1---------------------------------------|

Guitar 2
E----16-15-----------------------------16-15----------|
B-13-------16--16h18p16/13--(x16)---13-------16~------|
G-----------------------------------------------------|
D-----------------------------------------------------|
A-----------------------------------------------------|
D-----------------------------------------------------|
Im not to sure about this part, it's kinda
hard to hear, but i did my best...


                  That's all I've got for now
                  I'll keep working on it though
Tap to rate this tab
 
# A B C D E F G H I J K L M N O P Q R S T U V W X Y Z