Song name
# A B C D E F G H I J K L M N O P Q R S T U V W X Y Z

Silverstein - Youre All I Have tab

Tabbed by: Joshua Garcia (halofreak731@aol.com)

Tabs for the song: You're All I Have by Silverstein
Please rate and let me know if you have any corrections. Thank you.

Once upon a time, I looked up the tabs for this song. To my amazement the only tabs for this song
was the intro, which, even so, had the wrong tuning. So, for the good of the people (and to kill my
time lulz), I decided to tab the whole song...correctly as well.


Tuning: Drop C# (D# A# D# G# B# E#)


Intro
Guitar 1:
E#||----------------------------------------|
B#||----------------------------------------|
G#||------9--------9-------------------7----| x6
D#||---10-------10-----------12-------------|
A#||-8--------0-----------10--------5-------|
D#||-------------------10---------5---------|



Pre-Chorus
Guitar 2:
E#||---------------------------------------------------|
B#||---------------------------------------------------|
G#||-9--9--9--10-10-10-9--9--9--10-10-10-9--9--9--9----|
D#||-10-10-10-10-10-10-10-10-10-10-10-10-10-10-10-10---|
A#||---------------------------------------------------|
D#||---------------------------------------------------|


E#||---------------------------------------------------------|
B#||---------------------------------------------------------|
G#||-9--9--9--10-10-10-12-12-12-12-12-12-12-12-12-12-12-12---|
D#||-x--x--x--x--x--x--x--x--x--x--x--x--x--x--x--x--x--x----|
A#||-7--7--7--8--8--8--10-10-10-10-10-10-10-10-10-10-10-10---|
D#||---------------------------------------------------------|


Guitar 1:
E#||-----------------------------------|
B#||-----------------------------------|
G#||-----------------------------------|
D#||-2-2-2-3-3-3-5-5-5-5-5-5-5-5-5-5---|
A#||-2-2-2-3-3-3-5-5-5-5-5-5-5-5-5-5---|
D#||-2-2-2-3-3-3-5-5-5-5-5-5-5-5-5-5---|



Chorus
Guitar 1:
E#||----------------------------------------------------------------------|
B#||----------------------------------------------------------------------|
G#||----------------------------------------------------------------------|
D#||-7-7-7-5-7-5-3--5\--3-3-3-3-3-3-0--7-7-7-5-7-5-3-10\--3-3-3-3-3-3-0---|
A#||-7-7-7-5-7-5-3--5\--3-3-3-3-3-3-0--7-7-7-5-7-5-3-10\--3-3-3-3-3-3-0---|
D#||-7-7-7-5-7-5-3--5\--3-3-3-3-3-3-0--7-7-7-5-7-5-3-10\--3-3-3-3-3-3-0---|


E#||--------------------------------------------------------|
B#||--------------------------------------------------------|
G#||--------------------------------------------------------|
D#||-7-7-7-5-7-5-3--5\--3-3-3-3-3-3-0--2-2-2-3-3-3-5-5-5-5--|
A#||-7-7-7-5-7-5-3--5\--3-3-3-3-3-3-0--2-2-2-3-3-3-5-5-5-5--|
D#||-7-7-7-5-7-5-3--5\--3-3-3-3-3-3-0--2-2-2-3-3-3-5-5-5-5--|


E#||--------------|
B#||--------------|
G#||-7-9---7-9-7--|
D#||-x-x---x-x-x--|
A#||-5-7---5-7-5--|
D#||--------------|


Guitar 2:
E#||------------------|
B#||------------------|
G#||-999999999999997--| x3
D#||-xxxxxxxxxxxxxxx--|
A#||-777777777777775--|
D#||------------------|


E#||------------------------------------|
B#||------------------------------------|
G#||-9--9--9--10-10-10-12--12--12--12---|
D#||-x--x--x--x--x--x--x---x---x---x----|
A#||-7--7--7--8--8--8--10--10--10--10---|
D#||------------------------------------|



Verse
Guitar 1:
E#||----------------------------------------|
B#||----------------------------------------|
G#||------9--------9-------------------7----| x4
D#||---10-------10-----------12-------------|
A#||-8--------0-----------10--------5-------|
D#||-------------------10---------5---------|



Pre-Chorus
Guitar 2:
E#||---------------------------------------------------|
B#||---------------------------------------------------|
G#||-9--9--9--10-10-10-9--9--9--10-10-10-9--9--9--9----|
D#||-10-10-10-10-10-10-10-10-10-10-10-10-10-10-10-10---|
A#||---------------------------------------------------|
D#||---------------------------------------------------|


E#||---------------------------------------------------------|
B#||---------------------------------------------------------|
G#||-9--9--9--10-10-10-12-12-12-12-12-12-12-12-12-12-12-12---|
D#||-x--x--x--x--x--x--x--x--x--x--x--x--x--x--x--x--x--x----|
A#||-7--7--7--8--8--8--10-10-10-10-10-10-10-10-10-10-10-10---|
D#||---------------------------------------------------------|


Guitar 1:
E#||-----------------------------------|
B#||-----------------------------------|
G#||-----------------------------------|
D#||-2-2-2-3-3-3-5-5-5-5-5-5-5-5-5-5---|
A#||-2-2-2-3-3-3-5-5-5-5-5-5-5-5-5-5---|
D#||-2-2-2-3-3-3-5-5-5-5-5-5-5-5-5-5---|



Chorus
Guitar 1:
E#||----------------------------------------------------------------------|
B#||----------------------------------------------------------------------|
G#||----------------------------------------------------------------------|
D#||-7-7-7-5-7-5-3--5\--3-3-3-3-3-3-0--7-7-7-5-7-5-3-10\--3-3-3-3-3-3-0---|
A#||-7-7-7-5-7-5-3--5\--3-3-3-3-3-3-0--7-7-7-5-7-5-3-10\--3-3-3-3-3-3-0---|
D#||-7-7-7-5-7-5-3--5\--3-3-3-3-3-3-0--7-7-7-5-7-5-3-10\--3-3-3-3-3-3-0---|


E#||--------------------------------------------------------|
B#||--------------------------------------------------------|
G#||--------------------------------------------------------|
D#||-7-7-7-5-7-5-3--5\--3-3-3-3-3-3-0--2-2-2-3-3-3-5-5-5-5--|
A#||-7-7-7-5-7-5-3--5\--3-3-3-3-3-3-0--2-2-2-3-3-3-5-5-5-5--|
D#||-7-7-7-5-7-5-3--5\--3-3-3-3-3-3-0--2-2-2-3-3-3-5-5-5-5--|


E#||--------------|
B#||--------------|
G#||-7-9---7-9-7--|
D#||-x-x---x-x-x--|
A#||-5-7---5-7-5--|
D#||--------------|


Guitar 2:
E#||------------------|
B#||------------------|
G#||-999999999999997--| x3
D#||-xxxxxxxxxxxxxxx--|
A#||-777777777777775--|
D#||------------------|


E#||------------------------------------|
B#||------------------------------------|
G#||-9--9--9--10-10-10-12--12--12--12---|
D#||-x--x--x--x--x--x--x---x---x---x----|
A#||-7--7--7--8--8--8--10--10--10--10---|
D#||------------------------------------|



Bridge
Guitar 2:
E#||-0-|
B#||-8-|
G#||-9-| x2
D#||---|
A#||---|
D#||---|


E#||-------------------------------------------------|
B#||-------------------------------------------------|
G#||-12--------------------------------------9-------| x4
D#||----10-9-10-----10-9-10------10-9-10-------9-10--|
A#||-------------0-----------------------------------|
D#||-------------------------10----------------------|



Breakdown
Guitar 1:
E#||----------|
B#||----------|
G#||-7-9-7-5--|
D#||-x-x-x-x--|
A#||-5-7-5-3--|
D#||----------|


E#||------------------------------------------------------------------|
B#||------------------------------------------------------------------|
G#||--------7-7/9-9---------7-7\5-7---------5-5\4-5---------5-5\4-4---| x3
D#||--7-7---x-x/x-x---5-5---x-x\x-x---3-3---x-x\x-x---3-3---x-x\x-x---|
A#||--7-7---5-5/7-7---5-5---5-5\3-5---3-3---3-3\2-3---3-3---3-3\2-2---|
D#||--7-7-------------5-5-------------3-3-------------3-3-------------|


E#||--------------------------------------------------------------|
B#||--------------------------------------------------------------|
G#||--------7-7/9-9---------7-7\5-7---------5-5\4-5---------------| 
D#||--7-7---x-x/x-x---5-5---x-x\x-x---3-3---x-x\x-x---3-3---2-2---|
A#||--7-7---5-5/7-7---5-5---5-5\3-5---3-3---3-3\2-3---3-3---2-2---|
D#||--7-7-------------5-5-------------3-3-------------3-3---2-2---|



Pre-Chorus
Guitar 2:
E#||-------------------------------------------------------------------------------------|
B#||-------------------------------------------------------------------------------------|
G#||-9-9-9-9-9-9-9-9-9-9-9-9-9-9-9---9-9-9-10-10-10-12-12-12-12-12-12-12-12-12-12-12-12--|
D#||-x-x-x-x-x-x-x-x-x-x-x-x-x-x-x---x-x-x-x--x--x--x--x--x--x--x--x--x--x--x--x--x--x---|
A#||-7-7-7-7-7-7-7-7-7-7-7-7-7-7-7---7-7-7-8--8--8--10-10-10-10-10-10-10-10-10-10-10-10--|
D#||-------------------------------------------------------------------------------------|
     . . . . . . . . . . . . . . .


Guitar 1:
E#||-----------------------------------|
B#||-----------------------------------|
G#||-----------------------------------|
D#||-2-2-2-3-3-3-5-5-5-5-5-5-5-5-5-5---|
A#||-2-2-2-3-3-3-5-5-5-5-5-5-5-5-5-5---|
D#||-2-2-2-3-3-3-5-5-5-5-5-5-5-5-5-5---|



Chorus
Guitar 1:
E#||----------------------------------------------------------------------|
B#||----------------------------------------------------------------------|
G#||----------------------------------------------------------------------|
D#||-7-7-7-5-7-5-3--5\--3-3-3-3-3-3-0--7-7-7-5-7-5-3-10\--3-3-3-3-3-3-0---|
A#||-7-7-7-5-7-5-3--5\--3-3-3-3-3-3-0--7-7-7-5-7-5-3-10\--3-3-3-3-3-3-0---|
D#||-7-7-7-5-7-5-3--5\--3-3-3-3-3-3-0--7-7-7-5-7-5-3-10\--3-3-3-3-3-3-0---|


E#||--------------------------------------------------------------------|
B#||--------------------------------------------------------------------|
G#||--------------------------------------------------------------------|
D#||-7-7-7-5-7-5-3--5\--3-3-3-3-3-3-0--2-2-2-3-3-3-5-5-5-5-5-5-5-5-5-5--|
A#||-7-7-7-5-7-5-3--5\--3-3-3-3-3-3-0--2-2-2-3-3-3-5-5-5-5-5-5-5-5-5-5--|
D#||-7-7-7-5-7-5-3--5\--3-3-3-3-3-3-0--2-2-2-3-3-3-5-5-5-5-5-5-5-5-5-5--|
                                       . . . . . . . . . . . .

Guitar 2:
E#||------------------|
B#||------------------|
G#||-999999999999997--| x3
D#||-xxxxxxxxxxxxxxx--|
A#||-777777777777775--|
D#||------------------|


E#||-------------------------------------------------------|
B#||-------------------------------------------------------|
G#||-9--9--9--10-10-10-12--12--12--12--12--12--12--12--12--|
D#||-x--x--x--x--x--x--x---x---x---x---x---x---x---x---x---|
A#||-7--7--7--8--8--8--10--10--10--10--10--10--10--10--10--|
D#||-------------------------------------------------------|



Outro
Guitar 1:
E#||-----------------------------------------|
B#||-----------------------------------------|
G#||-----------------------------------------| x4
D#||-3-3------5-5------7-7------7-7-7-7-5-4--|
A#||-3-3------5-5------7-7------7-7-7-7-5-4--|
D#||-3-3------5-5------7-7------7-7-7-7-5-4--|


Guitar 2:
E#||------------------------------------------------------------|
B#||----5---5----8-----8---10----10-10-10-10--------------------|
G#||----7b9-9----10b12-12--12b14-14-14-14-14---10-9-10-9--------| x4
D#||-----------------------------------------------------12-10--|
A#||------------------------------------------------------------|
D#||------------------------------------------------------------|


Guitar 1:
E#||------|
B#||------|
G#||------|
D#||--7\--|
A#||--7\--|
D#||--7\--|




Tablature Legend
----------------
 h   - hammer-on
 p   - pull-off
 b   - bend
 r   - release bend
 *   - pinch harmonic
 x   - mute note
 .   - palm mute
 /   - slide down
 \   - slide up
Tap to rate this tab
# A B C D E F G H I J K L M N O P Q R S T U V W X Y Z