Silverstein - Total Bummer tab

+++++++++++++++++++++++++++++
| Silverstein- Total Bummer |
+++++++++++++++++++++++++++++


"And you, you light up my life..."


What a great acoustic cover of a NOFX song
kudos to both bands


Tuning: Standard EADGBe

Chords used in this song:

E:  022100
G#m: 466444
B:   x24442
C#m: x46654


Intro


e|--------------------------------------------------2222-0000------------|
B|-------2~--2h4-2-------2~--2h4-2-------2~--2h4-2--4444-2222-4444-4444--|
G|-1~------------------------------1~-------------------------4444-4444--|
D|-----------------4~----------------------------------------------------|
A|-----------------------------------------------------------------------|
E|-----------------------------------------------------------------------|
   G#m             B               G#m              B


Verse

    G#m        B
Go away, sunny day
    G#m        B
Go away, sunny day


Chorus

C#m
All the horny people sitting

In front of their TV and thinkin'
E                                B
What is wrong with me? I'm not a monster
C#m
Why won't anybody fuck me

I don't wanna live life lonely
E                            B
Why does everyone have to be perfect?


Verse

    G#m        B
Go away, sunny day
    G#m        B
Go away, sunny day


Chorus

C#m
All the barfly's sippin' whiskey

Fighting ever present pitty
E                                B
Wondering what they keep sucking back for
   C#m
Is it the drink or trepidation

Watching all trains leave the station
E                             B
Left standing alone without a ticket


Bridge

G#m                 B
    You light up my life
            E
You give me hope
         B
To carry on
G#m             B
You light up my days
    E                    B
And you, you light up my life


Solo


e|-------------7-------------------------|
B|---7-9~--------9-7---------------------|
G|-8---------8-------8~-8-9-8-8b~-8-8-8b-|
D|---------------------------------------|
A|---------------------------------------|
E|---------------------------------------|
       G#m           B


e|-----------------------------7777-9-9-9-9--11111111-11111111-|  These are
B|---------4-5-7~------4-7~--4-9999-11111111-12121212-12121212-|  11s and 12s
G|-----4-6---------4-6-----------------------------------------|
D|-4h6---------------------------------------------------------|  
A|-------------------------------------------------------------|
E|-------------------------------------------------------------|
   G#m                         B


Chorus

C#m
Stop searching cause there's no answer

Just a long ride of disaster
E                                 B
There's no simple way to stop the sadness
C#m
Life's not fair I'm glad it's not

This isn't heaven just a lonely
E                               B
Planet on the verge of self-destruction 



Outro

G#m



Please rate thanks!!


Lyrics:

Go away, sunny day

All the horny people sitting
In front of their TV and thinkin'
What is wrong with me? I'm not a monster
Why won't anybody fuck me
I don't wanna live life lonely
Why does everyone have to be perfect?

Go away, sunny day

All the barfly's sippin' whiskey
Fighting ever present pitty
Wondering what they keep sucking back for
Is it the drink or trepidation
Watching all trains leave the station
Left standing alone without a ticket

You light up my life
You give me hope
To carry on
You light up my days
And you, you light up my life
let's go

Stop searching cause there's no answer
Just a long ride of disaster
There's no simple way to stop the sadness
Life's not fair I'm glad it's not
This isn't heaven just a lonely
Planet on the verge of self-destruction 



+++++++++++++++++++++++++++++++++
| RaiLeff                       |
| Underground__Dora@Hotmail.Com |
+++++++++++++++++++++++++++++++++
Tap to rate this tab
 
# A B C D E F G H I J K L M N O P Q R S T U V W X Y Z