Silverstein - A Shipwreck In The Sand tab

Tabbed by: Joshua Garcia (halofreak731@aol.com)

Tabs for the song: A Shipwreck In the Sand by Silverstein
Please rate and let me know if you have any corrections. Thank you.


Tuning: Drop C# (C# G# C# F# A# D#)


Intro
Guitar 1:
D#||----------------------------------------------------------|
A#||------5-----5-------3-----3-------1-----1-------1-----1---|
F#||----5-----5-------4-----4-------2-----2-------2-----2-----|
C#||----------------------------------------------------------|
G#||--0-----0-------0-----0-------0-----0-------0-----0-------|
C#||----------------------------------------------------------|


D#||----------------------------------------------------------|
A#||----------------------------------------------------------|
F#||------7-----7-------5-----5-------3-----3-------3-----3---|
C#||----8-----8-------7-----7-------5-----5-------5-----5-----|
G#||----------------------------------------------------------|
C#||--5-----5-------5-----5-------5-----5-------5-----5-------|


D#||----------------------------------------------------------|
A#||----------------------------------------------------------|
F#||------2-----2-------2-----2-------------------------------|
C#||----3-----3-------3-----3---------3-----3-------3-----3---|
G#||--------------------------------5-----5-------5-----5-----|
C#||--0-----0-------0-----0-------0-----0-------0-----0-------|


D#||----------------------------------------------------------|
A#||------5-----5-------3-----3-------1-----1-------1-----1---|
F#||----5-----5-------4-----4-------2-----2-------2-----2-----|
C#||----------------------------------------------------------|
G#||--0-----0-------0-----0-------0-----0-------0-----0-------|
C#||----------------------------------------------------------|


D#||----------------------------------------------------------|
A#||----------------------------------------------------------|
F#||------7-----7-------5-----5-------3-----3-------3-----3---|
C#||----8-----8-------7-----7-------5-----5-------5-----5-----|
G#||----------------------------------------------------------|
C#||--5-----5-------5-----5-------5-----5-------5-----5-------|


D#||----------------------------------------------------------|
A#||----------------------------------------------------------|
F#||------2-----2-------2-----2-------------------------------|
C#||----3-----3-------3-----3---------3-----3~----------------|
G#||--------------------------------5-----5-------------------|
C#||--0-----0-------0-----0-------0-----0---------------------|



Verse
Guitar 1/2:
D#||----------------------------------------------------------------|
A#||-------5-5-5-------3-3-3-----3---------1-1-1-------1-1-1-----1--|
F#||-------5-5-5-------4-4-4-----4---------2-2-2-------2-2-2-----2--|
C#||-0-0-0-------0-0-0-------0-0-----0-0-0-------0-0-0-------0-0----|
G#||-0-0-0-------0-0-0-------0-0---0-0-0-0-------0-0-0-------0-0----|
C#||----------------------------------------------------------------|
     . . .       . . .       . .     . . .       . . .       . .

D#||----------------------------------------------------------------|
A#||----------------------------------------------------------------|
F#||-------2-2-2-------4-4-4-----4---------5-5-5-------4-4-4-----4--|
C#||-------3-3-3-------5-5-5-----5---------5-5-5-------5-5-5-----5--|
G#||-3-3-3-------3-3-3-------3-3-----3-3-3-------3-3-3-------3-3----|
C#||-3-3-3-------3-3-3-------3-3---0-3-3-3-------3-3-3-------3-3----|
     . . .       . . .       . .     . . .       . . .       . .

D#||----------------------------------------------------------------|
A#||----------------------------------------------------------------|
F#||-------2-2-2-------2-2-2-----2----------------------------------|
C#||-------3-3-3-------3-3-3-----3---------3-3-3-------3-3-3-----3--|
G#||-0-0-0-------0-0-0-------0-0-----0-0-0-5-5-5-0-0-0-5-5-5-0-0-5--|
C#||-0-0-0-------0-0-0-------0-0---0-0-0-0-------0-0-0-------0-0----|
     . . .       . . .       . .     . . .       . . .       . .

D#||----------------------------------------------------------------|
A#||----------------------------------------------------------------|
F#||-------2-2-2-------4-4-4-----4---------5-5-5-------4-4-4-----4--|
C#||-------3-3-3-------5-5-5-----5---------5-5-5-------5-5-5-----5--|
G#||-3-3-3-------3-3-3-------3-3-----3-3-3-------3-3-3-------3-3----|
C#||-3-3-3-------3-3-3-------3-3---0-3-3-3-------3-3-3-------3-3----|
     . . .       . . .       . .     . . .       . . .       . .



Interlude
Guitar 1:
D#||-------|-------|-------|-------|
A#||-------|-------|-------|-------|
F#||-------|-------|-------|-------|
C#||-------|-------|-------|-------|
G#||---0~--|-------|-------|-------|
C#||-------|---3~--|---0~--|---3~--|


Guitar 2:
D#||----------------------|----------------------|----------------------|-------------------|
A#||----------------------|----------------------|----------------------|-------------------|
F#||------------------x2--|------------------x2--|------------------x2--|-------------------|
C#||----2------2---5------|----2------2---5------|----2------2---5------|----2------2---5---|
G#||--0------0---0--------|----------------------|----------------------|-------------------|
C#||----------------------|--3-------3--3--------|--0-------0--0--------|--3-------3--3-----|


D#||------------------------------------|
A#||------------------------------------|
F#||------------------------------------|
C#||-0h2-2-2-2-2-2-2-2-2-0-0-0-0-0-0-0--|
G#||------------------------------------|
C#||------------------------------------|



Verse
Guitar 1/2:
D#||----------------------------------------------------------------|
A#||-------5-5-5-------3-3-3-----3---------1-1-1-------1-1-1-----1--|
F#||-------5-5-5-------4-4-4-----4---------2-2-2-------2-2-2-----2--|
C#||-0-0-0-------0-0-0-------0-0-----0-0-0-------0-0-0-------0-0----|
G#||-0-0-0-------0-0-0-------0-0---0-0-0-0-------0-0-0-------0-0----|
C#||----------------------------------------------------------------|
     . . .       . . .       . .     . . .       . . .       . .

D#||----------------------------------------------------------------|
A#||----------------------------------------------------------------|
F#||-------2-2-2-------4-4-4-----4---------5-5-5-------4-4-4-----4--|
C#||-------3-3-3-------5-5-5-----5---------5-5-5-------5-5-5-----5--|
G#||-3-3-3-------3-3-3-------3-3-----3-3-3-------3-3-3-------3-3----|
C#||-3-3-3-------3-3-3-------3-3---0-3-3-3-------3-3-3-------3-3----|
     . . .       . . .       . .     . . .       . . .       . .

D#||----------------------------------------------------------------|
A#||----------------------------------------------------------------|
F#||-------2-2-2-------2-2-2-----2----------------------------------|
C#||-------3-3-3-------3-3-3-----3---------3-3-3-------3-3-3-----3--|
G#||-0-0-0-------0-0-0-------0-0-----0-0-0-5-5-5-0-0-0-5-5-5-0-0-5--|
C#||-0-0-0-------0-0-0-------0-0---0-0-0-0-------0-0-0-------0-0----|
     . . .       . . .       . .     . . .       . . .       . .

D#||-----------------------------------|
A#||-------5-5-5-------3-3-3-----3-----|
F#||-------5-5-5-------4-4-4-----4-----|
C#||-0-0-0-------0-0-0-------0-0-------|
G#||-0-0-0-------0-0-0-------0-0---0---|
C#||-----------------------------------|
     . . .       . . .       . .


D#||-----------------------------------|
A#||-------------1-1-1-1-1-1-1-1-1-1---|
F#||-------------2-2-2-2-2-2-2-2-2-2---|
C#||-0-0-0-0-0-0-----------------------|
G#||-0-0-0-0-0-0-----------------------|
C#||-----------------------------------|
     . . . . . . . . .



Bridge
Guitar 1:
D#||--------------------------------|------------------------------------|
A#||--8----5------------------------|------------------------------------|
F#||------------5--7----4-----------|--5---------7--4---------4--5-------| x2
C#||-------------------------5--7~--|-------7------------5------------7~-|
G#||--------------------------------|------------------------------------|
C#||--------------------------------|------------------------------------|


Guitar 2:
D#||--------------------------------------------------------|
A#||--------------------------------------------------------|
F#||--------------------------------------------------------| x4
C#||--3~---3~---3~-5~---5~---5~-7~---7~---7~-7~---7~---7~---|
G#||--3~---3~---3~-5~---5~---5~-7~---7~---7~-7~---7~---7~---|
C#||--3~---3~---3~-5~---5~---5~-7~---7~---7~-7~---7~---7~---|



Chorus/Outro
Guitar 1:
D#||--12-10---12------12------12------15-12---17--|
A#||-------------10--------------10---------------|
F#||---------------------12-----------------------| x4
C#||----------------------------------------------|
G#||----------------------------------------------|
C#||----------------------------------------------|


Guitar 2:
D#||--------------------------------------------------------|
A#||--------------------------------------------------------|
F#||--------------------------------------------------------| x2
C#||--3~---3~---3~-5~---5~---5~-7~---7~---7~-7~---7~---7~---|
G#||--3~---3~---3~-5~---5~---5~-7~---7~---7~-7~---7~---7~---|
C#||--3~---3~---3~-5~---5~---5~-7~---7~---7~-7~---7~---7~---|


Guitar 1:
D#||--5-3-55-3-55-3-55-3-55-3-5-3--|-8-7-88-7-88-7-88-7-88-7-8-7--|
A#||-------------------------------|------------------------------|
F#||-------------------------------|------------------------------|
C#||-------------------------------|------------------------------|
G#||-------------------------------|------------------------------|
C#||-------------------------------|------------------------------|


D#||--12-10-1212-10-1212-10-1212-10-1212-10-12-10-------|
A#||----------------------------------------------------|
F#||------------------------------------------------x2--| x2
C#||----------------------------------------------------|
G#||----------------------------------------------------|
C#||----------------------------------------------------|


D#||--5-3-55-3-55-3-55-3-55-3-5-3--|-8-7-88-7-88-7-88-7-88-7-8-7--|
A#||-------------------------------|------------------------------|
F#||-------------------------------|------------------------------|
C#||-------------------------------|------------------------------|
G#||-------------------------------|------------------------------|
C#||-------------------------------|------------------------------|


D#||--12-10-1212-10-1212-10-1212-10-1212-10-12-10--|
A#||-----------------------------------------------|
F#||-----------------------------------------------|
C#||-----------------------------------------------|
G#||-----------------------------------------------|
C#||-----------------------------------------------|


D#||--12-10-12-13-12-13-12-13-12-10-12-10----10-12-10--|
A#||--------------------------------------13-----------|
F#||---------------------------------------------------|
C#||---------------------------------------------------|
G#||---------------------------------------------------|
C#||---------------------------------------------------|



D#||--5-3-55-3-55-3-55-3-55-3-5-3--|-8-7-88-7-88-7-88-7-88-7-8-7--|
A#||-------------------------------|------------------------------|
F#||-------------------------------|------------------------------|
C#||-------------------------------|------------------------------|
G#||-------------------------------|------------------------------|
C#||-------------------------------|------------------------------|


D#||--12---5---8~---|
A#||----------------|
F#||----------------|
C#||----------------|
G#||----------------|
C#||----------------|


Guitar 2:
D#||-------------------------------------------------------------------|
A#||-------------------------------------------------------------------|
F#||-------------------------------------------------------------------| x3
C#||-3333333333333333555555555555555577777777777777777777777777777777--|
G#||-3333333333333333555555555555555577777777777777777777777777777777--|
C#||-3333333333333333555555555555555577777777777777777777777777777777--|


D#||--------------------------------------|
A#||--------------------------------------|
F#||--------------------------------------| x3
C#||-33333333333333335555555555555555-0~--|
G#||-33333333333333335555555555555555-0~--|
C#||-33333333333333335555555555555555-0~--|





Tablature Legend
----------------
 h   - hammer-on
 p   - pull-off
 b   - bend
 r   - release bend
 *   - pinch harmonic
 '   - natural harmonic
 x   - mute note
 .   - palm mute
 /   - slide down
 \   - slide up
Tap to rate this tab
 
# A B C D E F G H I J K L M N O P Q R S T U V W X Y Z