Silverstein - Replace You tab

All of the other tabs are weird and are sort of wrong. This is exactly the way Shane 
Told plays the song live and on the album because they both sound exactly the same. so here 
it goes.

Tuning: Standard (EADGBE) with a Capo on the 3rd fret because the song is in the key of G.

E|-----------0-----------|
B|-------------10--------|
G|----------------10-----|  X2
D|--------8--------------|
A|-----10----------------|
E|---0-------------------|

E|--------0--------------|
B|----------8------------|
G|------8-----8----------|  X2
D|----8------------------|
A|--6--------------------|
E|-----------------------|

the after the intro pickout there are these chords:

E|--6666-666-6666666-----0000-000-0000000------------|
B|--6666-666-6666666-----6666-666-6666666------------|
G|--0000-000-0000000-----0000-000-0000000------------|
D|--5555-555-5555555-X2--5555-555-5555555-X2---------|
A|--5555-555-5555555-----6666-666-6666666------------|
E|--0000-000-0000000-----xxxx-xxx-xxxxxxx------------|

then at the end before the lyrics come in:

E|--6-66--6-666---------------|
B|--6-66--6-666---------------|
G|--0-00--0-000---------------|
D|--0-00--0-000---------------|
A|--5-55--0-000---------------|
E|--6-66--5-555---------------|

this is all I have now because I'm lazy, for experts you should be able to figure this 
out. for beginners, will edit and finish this later :)
Tap to rate this tab
 
# A B C D E F G H I J K L M N O P Q R S T U V W X Y Z