Silverstein - The End tab

-----------------------------------------------------------------------
                           The End - Silverstein
-----------------------------------------------------------------------
Tabbed by: Tylernol

Tuning: Standard

Intro:

e|-------------------------------------------------------|
B|-4-4--4-4--4-4--4-4--4-4--4-4--------------------------|
G|--4-4--4-4--4-4--4-4--4-4--4-4-9-9-9-9-9-9-8-8-8-8-8-8-|
D|-------------------------------9-9-9-9-9-9-9-9-9-9-9-9-|
A|-------------------------------7-7-7-7-7-7-7-7-7-7-7-7-|
E|-4~---4~---2~---0~---4~---4~---------------------------|
                      
e|-------------------------|-------------------------|    *Instead of 4
B|-------------------4-----|-------------------4-----|       on the B
G|-------------6-4-----4---|-9-9-9-9-9-9-6-4-----4---|      string you 
D|-6-6-6-6-6-6-----6-----6-|-9-9-9-9-9-9-----6-----6-| X3 can play 8 on
A|-6-6-6-6-6-6-------------|-7-7-7-7-7-7-------------|    the G string*
E|-4-4-4-4-4-4-------------|-------------------------|
   x x x x x x               x x x x x x

e|------------------------------------------------|-------------|
B|-------------------4------------(continue until-|-------------|
G|-------------6-4-----4-----9-----after he says--|-8~~~---6~~~-|
D|-6-6-6-6-6-6-----6-----6---9-->--"my mind...")--|-9~~~--------|
A|-6-6-6-6-6-6---------------7--------------------|-7~~~--------|
E|-4-4-4-4-4-4------------------------------------|-------------|
   x x x x x x

Verse:

e|-----------------------------------------------------------|
B|-----------------------------------------------------------|
G|-11-1111111111-1111111111-11111111111111111111111111111111-|
D|-x--x-x-x-x-x--x-x-x-x-x--x-x-x-x-x-x-x-x-x-x-x-x-x-x-x-x--|-
A|-9--9-9-9-9-9--9-9-9-9-9--9-9-9-9-9-9-9-9-9-9-9-9-9-9-9-9--| \
E|-----------------------------------------------------------|  \	
                                                                 > X4
e|-----------------------------------------------------------|  /
B|-----------------------------------------------------------| /
G|-4--4-4-4-4-6--6-6-6-6-8--8-8-8-8-8-8-8-8-6-6-6-6-6-6-6-6--|-
D|-x--x-x-x-x-x--x-x-x-x-x--x-x-x-x-x-x-x-x-x-x-x-x-x-x-x-x--|
A|-2--2-2-2-2-4--4-4-4-4-6--6-6-6-6-6-6-6-6-4-4-4-4-4-4-4-4--|
E|-----------------------------------------------------------|



Chorus:

e|---------------x-x-x-x---------------x-x-x-x-|
B|---------------x-x-x-x---------------x-x-x-x-|
G|-11-1111111111-x-x-x-x-11-1111111111-x-x-x-x-|
D|-x--x-x-x-x-x--x-x-x-x-x--x-x-x-x-x--x-x-x-x-|
A|-9--9-9-9-9-9--x-x-x-x-9--9-9-9-9-9--x-x-x-x-|
E|---------------x-x-x-x---------------x-x-x-x-|

e|---------------------------------------------|
B|---------------------------------------------|
G|-4--4-4-4-4-6--6-6-6-6-8--8-8-8-8-6--6-6-6-6-|
D|-x--x-x-x-x-x--x-x-x-x-x--x-x-x-x-x--x-x-x-x-|
A|-2--2-2-2-2-4--4-4-4-4-6--6-6-6-6-4--4-4-4-4-|
E|---------------------------------------------|

e|---------------x-x-x-x---------------x-x-x-x-|
B|---------------x-x-x-x---------------x-x-x-x-|
G|-11-1111111111-x-x-x-x-11-1111111111-x-x-x-x-|
D|-x--x-x-x-x-x--x-x-x-x-x--x-x-x-x-x--x-x-x-x-|
A|-9--9-9-9-9-9--x-x-x-x-9--9-9-9-9-9--x-x-x-x-|
E|---------------x-x-x-x---------------x-x-x-x-|

e|---------------------------------------------|
B|---------------------------------------------|
G|-4--4-4-4-4-6--6-6-6-6-8--8-8-8-8-11-11111111|
D|-x--x-x-x-x-x--x-x-x-x-x--x-x-x-x-x--x-x-x-x-|
A|-2--2-2-2-2-4--4-4-4-4-6--6-6-6-6-9--9-9-9-9-|
E|---------------------------------------------|

e|---------------x-x-x-x---------------x-x-x-x-|
B|---------------x-x-x-x---------------x-x-x-x-|
G|-8--8-8-8-8-8--x-x-x-x-11-1111111111-x-x-x-x-|
D|-x--x-x-x-x-x--x-x-x-x-x--x-x-x-x-x--x-x-x-x-|
A|-6--6-6-6-6-6--x-x-x-x-9--9-9-9-9-9--x-x-x-x-|
E|---------------x-x-x-x---------------x-x-x-x-|

e|---------------------------------------------|
B|---------------------------------------------|
G|-4--4-4-4-4-11-111111119--9-9-9-9-8--8-8-8-8-|
D|-x--x-x-x-x-x--x-x-x-x-x--x-x-x-x-x--x-x-x-x-|
A|-2--2-2-2-2-9--9-9-9-9-7--7-7-7-7-6--6-6-6-6-|
E|---------------------------------------------|

e|---------------x-x-x-x---------------x-x-x-x-|
B|---------------x-x-x-x---------------x-x-x-x-|
G|-8--8-8-8-8-8--x-x-x-x-11-1111111111-x-x-x-x-|
D|-x--x-x-x-x-x--x-x-x-x-x--x-x-x-x-x--x-x-x-x-|
A|-6--6-6-6-6-6--x-x-x-x-9--9-9-9-9-9--x-x-x-x-|
E|---------------x-x-x-x---------------x-x-x-x-|

e|-----x-x-x-x---x-x-x-x----|  After second e|----|
B|-----x-x-x-x---x-x-x-x----|  chorus play: B|-4~-|
G|-4-4-x-x-x-x-4-x-x-x-x-4~-|               G|----|
D|-x-x-x-x-x-x-x-x-x-x-x-x--|               D|----|
A|-2-2-x-x-x-x-2-x-x-x-x-2~-|               A|----|
E|-----x-x-x-x---x-x-x-x----|               E|----|


Repeat Verse


Repeat Chorus


Bridge:

e|-----------------------------------------------------------------|
B|-----------------------------------------------------------------|
G|-----------------------------------------------------------------| 
D|---------------------9-9-----9-9---------------------9-9-----9-9-|-|
A|---6-6-6---6-6-6-7-7-----7-7-------6-6-6---6-6-6-7-7-----7-7-----| |
E|-4-------4-----------------------2-------2-----------------------| |
                                                                     |
e|---------------------------------------------|                    /
B|---------------------------------------------|                   / 
G|-11-1111111111-111111119--9-9-9-9-9--9-9-9-9-|                  / 
D|-x--x-x-x-x-x--x-x-x-x-x--x-x-x-x-x--x-x-x-x-|------------------> X5
A|-9--9-9-9-9-9--9-9-9-9-7--7-7-7-7-7--7-7-7-7-|                 /
E|---------------------------------------------|                /
                                                               /
e|---------------------------------------------|              /
B|---------------------------------------------|             /
G|-8--8-8-8-8-8--8-8-8-8-6--6-6-6-6-6--6-6-6-6-|------------/ 
D|-x--x-x-x-x-x--x-x-x-x-x--x-x-x-x-x--x-x-x-x-|            
A|-6--6-6-6-6-6--6-6-6-6-4--4-4-4-4-4--4-4-4-4-|
E|---------------------------------------------|

(To be honest after the 3rd time Iím not sure if there is any guitar
 until the chorus, so the last 2 times I play just so Iím not sitting
 there waiting :P)

***The first part of the bridge (all the single notes) can be played
differently, it can be played like: 

e|-----------------------------------------------------------------|
B|-----------------------------------------------------------------|
G|---------------------4-4-----4-4---------------------4-4-----4-4-|
D|---1-1-1---1-1-1-2-2-----2-2-------1-1-1---1-1-1-2-2-----2-2-----|
A|-----------------------------------------------------------------|
E|-4-------4-----------------------2-------2-----------------------|

I only play it the other way because in the song I hear some strumming
I mute all the other strings with my index finger while I play the riff
Which gives it a nice sound if you do it properly (I canít even do it
All that great), but if you donít care to add that strumming its much
easier to do it this way above***


Repeat Chorus and after the chorus keep playing e|---| until the outro 
                                                B|---|       starts at
                                                G|-4-|      ďplanes fill
                                                D|-x-|       the sky..."
                                                A|-2-|
                                                E|---|

Outro:

e|----------------------------------------------|
B|----------------------------------------------|
G|-13-1313131313-1313131313-1313131313-13131313-|
D|-x--x-x-x-x-x--x-x-x-x-x--x-x-x-x-x--x-x-x-x--|-----|
A|-11-1111111111-1111111111-1111111111-11111111-|     |
E|----------------------------------------------|     |
                                                      |
e|----------------------------------------------|     |
B|----------------------------------------------|     |
G|-11-1111111111-1111111111-1111111111-9-111111-|     |
D|-x--x-x-x-x-x--x-x-x-x-x--x-x-x-x-x--x-x-x-x--|-----|
A|-9--9-9-9-9-9--9-9-9-9-9--9-9-9-9-9--7-9-9-9--|     |
E|----------------------------------------------|     \
                                                       > X8
e|----------------------------------------------|     /
B|----------------------------------------------|     |
G|-11-1111111111-111111119--8-8-8-8-8--8-8-8-8--|-----|
D|-x--x-x-x-x-x--x-x-x-x-x--x-x-x-x-x--x-x-x-x--|     |
A|-9--9-9-9-9-9--9-9-9-9-7--6-6-6-6-6--6-6-6-6--|     |
E|----------------------------------------------|     |
                                                      |
e|----------------------------------------------|     |
B|----------------------------------------------|     |
G|-11-1111111111-1111111113-1313131311-11111111-|-----|
D|-x--x-x-x-x-x--x-x-x-x-x--x-x-x-x-x--x-x-x-x--|   
A|-9--9-9-9-9-9--9-9-9-9-11-111111119--9-9-9-9--|
E|----------------------------------------------|

e|--------| e|-------------------------------------------| 
B|--------| B|-------------------------------------------|   
G|-9~~~~~-| G|-------------------------------------------| X3
D|-x------| D|-------------------------------------------| 
A|-7~~~~~-| A|-/14-12----/9-6---/4---/7-4-/9-6---/9-7----|
E|--------| E|--------13------7---4~-----------7------9~-|

              (I canít figure out what chord is being played while this
               riff is being played, but Iím pretty sure itís the same
               chord over and over, if anyone can figure it out please
               let me know)

Violin (Outro)

e|--------------------------| (Comes in when after you play the 4~ the
B|--------------------------|    3rd time, and the guitar fades out)
G|-11-9-8-9~~~-11~~~-9~~~~~-|
D|--------------------------|
A|--------------------------|
E|--------------------------|
Tap to rate this tab
 
# A B C D E F G H I J K L M N O P Q R S T U V W X Y Z