Silverstein - Forget Your Heart tab

SILVERSTEIN - FORGET YOUR HEART.

SO THIS IS MY SECOND TAB EVER ITS THE MOST ACCURATE OF THIS SONG SO FAR AND I THISNK IF 
YOU PUT YOUR MIND TO IT AND LISTEN TO THE SONG YOU COULD GRAP IT PREETY QUIKLY.
TUNING: DROP D (DADGBe)

----------------------------------------------------------------------------
INTRO

e|--------------------------------------------------)-------------------------|
B|--------------------------------------------------)-------------------------|
G|--------------------------------------------------)-------------------------|
D|--------------------------------------------------)-------------------------|
A|---00-77-55-44-00-44-00----00-44-22-00------------)-------------------------|
D|-44---------------------33-------------77-66-22--)--------------------------|
DO THIS X4
----------------------------------------------------------------------------
VERSE 1
STUMMING NOT SHOWN !!!!!!!!!!!!!!!!!!!

e|--------------------------------------------------------------------------|
B|--------------------------------------------------------------------------|
G|--------------------------------------------------------------------------|
D|--6--x--4--0--14--12--x--4--0--14--12--4----------------------------------|
A|--6--x--4--0--14--12--x--4--0--14--12--4----------------------------------|
D|--6--x--4--0--14--12--x--4--0--14--12--4----------------------------------|
THIS X1

----------------------------------------------------------------------------
VERSE 2
THIS IS THE BIT THATS PLAM MUTED STRUMING NOT SHOWN

e|--------------------------------------------------------------------------|
B|--------------------------------------------------------------------------|
G|----------7---------------------------------------------------------------|
D|-4--6--7--7--9--5--7------------------------------------------------------|
A|-4--6--7--5--9--5--7------------------------------------------------------|
D|-4--6--7-----9--5--7------------------------------------------------------|

----------------------------------------------------------------------------
CHORUS

STUMMING NOT SHOWN!!!!!!!!!!!!!!!!!!
e|--------------------------------------------------------------------------|
B|--------------------------------------------------------------------------|
G|--------------------------------------------------------------------------|
D|-12--7--6---------0--2--4-------4--12--7--6--12---------------------------|
A|-12--7--6-sustain-0--2--4-break-4--12--7--6--12---------------------------|
D|-12--7--6---------0--2--4-------4--12--7--6--12---------------------------|
----------------------------------------------------------------------------|
THEN VERSE 1
THEN VERSE 2
THEN CHORUS
----------------------------------------------------------------------------
I CANT REMEMBER THINK ITS VERSE 3 MAYBE
STRUMMING NOT SHOWN!!!!!!!!!!!
e|--------------------------------------------------------------------------|
B|--------------------------------------------------------------------------|
G|--------------------------------------------------------------------------|
D|-12--14--4--7--9----------------------------------------------------------|
A|-12--14--4--7--9----------------------------------------------------------|
D|-12--14--4--7--9----------------------------------------------------------|

THEN REPEAT THE INTRO
----------------------------------------------------------------------------
THAT BUILD UP THING
STRUMMING NOT SHOWN

e|------------12-10-9-----12-13-12-12-------12-10-9-------------------------|
B|--------------------10--------------15-14---------10-9--------------------|
G|--------------------------------------------------------------------------|
D|--4--7--4-----------------------------------------------------------------|
A|--4--7--4-----------------------------------------------------------------|
D|--4--7--4-----------------------------------------------------------------|
----------------------------------------------------------------------------|
AFTER DO THE CHORUS
AND THEN THIS LAST BIT

e|--------------------------------------------------------------------------|
B|--------------------------------------------------------------------------|
G|--------------------------------------------------------------------------|
D|-0--2--4------------------------------------------------------------------|
A|-0--2--4--SUSTAIN---------------------------------------------------------|
D|-0--2--4------------------------------------------------------------------|
END
Tap to rate this tab
 
# A B C D E F G H I J K L M N O P Q R S T U V W X Y Z