Song name
# A B C D E F G H I J K L M N O P Q R S T U V W X Y Z

Silverstein - Stay Posi tab

Tabbed by: Joshua Garcia (halofreak731@aol.com)

Tabs for the song: Stay Posi (ft. Ryan Key of Yellowcard) by Silverstein
Please rate and let me know if you have any corrections. Thank you.

This song is from the Take Action Volume 10 compilation album. It features Ryan Key of Yellowcard
and its wicked sweet! And super easy.


Tuning:  Drop C# (C# G# C# F# A# D#)


Intro
Guitar 1/2:
D#||-------------------------------------------------------------------------|
A#||-------------------------------------------------------------------------|
F#||-------------------------------------------------------------------------|
C#||---7~---4~---2~------4~---2~---0~------7~---4~---2~-------0~---0~---0~---| x2
G#||---7~---4~---2~------4~---2~---0~------7~---4~---2~-------0~---0~---0~---|
C#||---7~---4~---2~------4~---2~---0~------7~---4~---2~-------0~---0~---0~---|



Verse
Guitar 1/2:
D#||------------------------------------------------------------------------------|
A#||------------------------------------------------------------------------------|
F#||------------------------------------------------------------------------------| x2
C#||------------------------------------7-------------------------------------2---|
G#||--444--4-4--444-----444--4-4--444---7---000--0-0--000-----000--0-0--000---2---|
C#||--444--4-4--444-----444--4-4--444---7---000--0-0--000-----000--0-0--000---2---|
      ...  . .  ...     ...  . .  ...       ...  . .  ...     ...  . .  ...


Pre-Chorus
Guitar 1:
D#||-------------------------------------------------------------------|
A#||-------------------------------------------------------------------|
F#||-------------------------------------------------------------------|
C#||--7---7---7---7---7---7---6---6---7---7---7---7---7---7---4---4----|
G#||----9---9---9---9---9---9---7---7---5---5---5---5---5---5---5---5--|
C#||-------------------------------------------------------------------|
      . . . . . . . . . . . . . . . . . . . . . . . . . . . . . . . .

D#||-------------------------------------------------------------------|
A#||-------------------------------------------------------------------|
F#||-------------------------------------------------------------------|
C#||--7---7---7---7---7---7---9---9---7-6-7-6-7-6-7-6-9-7-7-6-6--------|
G#||----9---9---9---9---9---9---7---7---------------------------9-9-7--|
C#||-------------------------------------------------------------------|
      . . . . . . . . . . . . . . . . . . . . . . . .


Guitar 2:
D#||-----------------------------------------------------------------------------------|
A#||-----------------------------------------------------------------------------------|
F#||-----------------------------------------------------------------------------------|
C#||---------------------------------------7---------------------------------------2---|
G#||--444--4-4--444--4--4--444--4-4--444---7---000--0-0--000--0-0--000--0-0--000---2---|
C#||--444--4-4--444--4--4--444--4-4--444---7---000--0-0--000--0-0--000--0-0--000---2---|
      ...  . .  ...  .  .  ...  . .  ...       ...  . .  ...  . .  ...  . .  ...

D#||---------------------------------------------------------------------------------|
A#||---------------------------------------------------------------------------------|
F#||---------------------------------------------------------------------------------|
C#||---------------------------------------7-----------------------2-2-2-2-2-2-2-2---|
G#||--444--4-4--444--4--4--444--4-4--444---7---000--0-0--000--0-0--2-2-2-2-2-2-2-2---|
C#||--444--4-4--444--4--4--444--4-4--444---7---000--0-0--000--0-0--2-2-2-2-2-2-2-2---|
      ...  . .  ...  .  .  ...  . .  ...       ...  . .  ...  . .  . . . . . . . .



Chorus
Guitar 1/2:
D#||-------------------------------------------------------------------------|
A#||-------------------------------------------------------------------------|
F#||-------------------------------------------------------------------------|
C#||---7~---4~---2~------4~---2~---0~------7~---4~---2~-------0~---0~---0~---| x2
G#||---7~---4~---2~------4~---2~---0~------7~---4~---2~-------0~---0~---0~---|
C#||---7~---4~---2~------4~---2~---0~------7~---4~---2~-------0~---0~---0~---|



Verse
Guitar 1/2:
D#||------------------------------------------------------------------------------|
A#||------------------------------------------------------------------------------|
F#||------------------------------------------------------------------------------| x2
C#||------------------------------------7-------------------------------------2---|
G#||--444--4-4--444-----444--4-4--444---7---000--0-0--000-----000--0-0--000---2---|
C#||--444--4-4--444-----444--4-4--444---7---000--0-0--000-----000--0-0--000---2---|
      ...  . .  ...     ...  . .  ...       ...  . .  ...     ...  . .  ...


Pre-Chorus
Guitar 1:
D#||-------------------------------------------------------------------|
A#||-------------------------------------------------------------------|
F#||-------------------------------------------------------------------|
C#||--7---7---7---7---7---7---6---6---7---7---7---7---7---7---4---4----|
G#||----9---9---9---9---9---9---7---7---5---5---5---5---5---5---5---5--|
C#||-------------------------------------------------------------------|
      . . . . . . . . . . . . . . . . . . . . . . . . . . . . . . . .

D#||-------------------------------------------------------------------|
A#||-------------------------------------------------------------------|
F#||-------------------------------------------------------------------|
C#||--7---7---7---7---7---7---9---9---7-6-7-6-7-6-7-6-9-7-7-7-7-7-7-7--|
G#||----9---9---9---9---9---9---7---7----------------------------------|
C#||-------------------------------------------------------------------|
      . . . . . . . . . . . . . . . . . . . . . . . .


Guitar 2:
D#||-----------------------------------------------------------------------------------|
A#||-----------------------------------------------------------------------------------|
F#||-----------------------------------------------------------------------------------|
C#||---------------------------------------7---------------------------------------2---|
G#||--444--4-4--444--4--4--444--4-4--444---7---000--0-0--000--0-0--000--0-0--000---2---|
C#||--444--4-4--444--4--4--444--4-4--444---7---000--0-0--000--0-0--000--0-0--000---2---|
      ...  . .  ...  .  .  ...  . .  ...       ...  . .  ...  . .  ...  . .  ...

D#||---------------------------------------------------------------------------------|
A#||---------------------------------------------------------------------------------|
F#||---------------------------------------------------------------------------------|
C#||---------------------------------------7-----------------------2-2-2-2-2-2-2-2---|
G#||--444--4-4--444--4--4--444--4-4--444---7---000--0-0--000--0-0--2-2-2-2-2-2-2-2---|
C#||--444--4-4--444--4--4--444--4-4--444---7---000--0-0--000--0-0--2-2-2-2-2-2-2-2---|
      ...  . .  ...  .  .  ...  . .  ...       ...  . .  ...  . .  . . . . . . . .

D#||-----|--------|
A#||-----|--------|
F#||-----|--------|
C#||--4--|---0~---|
G#||--4--|---0~---|
C#||--4--|---0~---|



Chorus
Guitar 1/2:
D#||-------------------------------------------------------------------------|
A#||-------------------------------------------------------------------------|
F#||-------------------------------------------------------------------------|
C#||---7~---4~---2~------4~---2~---0~------7~---4~---2~-------0~---0~---0~---| x2
G#||---7~---4~---2~------4~---2~---0~------7~---4~---2~-------0~---0~---0~---|
C#||---7~---4~---2~------4~---2~---0~------7~---4~---2~-------0~---0~---0~---|



Breakdown
Guitar 1/2:
D#||--------------------------------------------|
A#||--------------------------------------------|
F#||--------------------------------------------| x2
C#||---4---7---0-2~-----------4---7---0-2---2---|
G#||---4---7---0-2~-----------4---7---0-2---2---|
C#||---4---7---0-2~-----------4---7---0-2---2---|


D#||--------------------------------------------|
A#||--------------------------------------------|
F#||--------------------------------------------|
C#||---4---7---0-2~--x-x---x--4---7---0-2---2---|
G#||---4---7---0-2~--x-x---x--4---7---0-2---2---|
C#||---4---7---0-2~--x-x---x--4---7---0-2---2---|



Bridge
Guitar 1/2:
D#||------------|------------|------------|
A#||------------|------------|------------|
F#||------------|------------|------------|
C#||-----0~-----|-----0~-----|-----0~-----|
G#||-----0~-----|-----0~-----|-----0~-----|
C#||-----0~-----|-----0~-----|-----0~-----|



Pre-Chorus
Guitar 1/2:
D#||---------------------------------------------------------------------|
A#||---------------------------------------------------------------------|
F#||---------------------------------------------------------------------|
C#||---7~---4~---2~------4~---2~---0~------7~---4~---2~---|pick--|--0~---| x2
G#||---7~---4~---2~------4~---2~---0~------7~---4~---2~---|-slide|--0~---|
C#||---7~---4~---2~------4~---2~---0~------7~---4~---2~-------------0~---|


Chorus
Guitar 1/2:
D#||-------------------------------------------------------------------------|
A#||-------------------------------------------------------------------------|
F#||-------------------------------------------------------------------------|
C#||---7~---4~---2~------4~---2~---0~------7~---4~---2~-------0~---0~---0~---| x2
G#||---7~---4~---2~------4~---2~---0~------7~---4~---2~-------0~---0~---0~---|
C#||---7~---4~---2~------4~---2~---0~------7~---4~---2~-------0~---0~---0~---|



Outro
Guitar 1/2:
D#||-----------------------------------------------------------------------|
A#||-----------------------------------------------------------------------|
F#||-----------------------------------------------------------------------|
C#||---7~---4~---2~------4~---2~---0~------7~---4~---2~-------0---0---0~---| 
G#||---7~---4~---2~------4~---2~---0~------7~---4~---2~-------0---0---0~---|
C#||---7~---4~---2~------4~---2~---0~------7~---4~---2~-------0---0---0~---|





Tablature Legend
----------------
 h   - hammer-on
 p   - pull-off
 b   - bend
 r   - release bend
 *   - pinch harmonic
 '   - natural harmonic
 x   - mute note
 .   - palm mute
 /   - slide down
 \   - slide up
Tap to rate this tab
 
# A B C D E F G H I J K L M N O P Q R S T U V W X Y Z