Song name
# A B C D E F G H I J K L M N O P Q R S T U V W X Y Z

Silverstein - Dancing On My Grave tab

RIGHT THIS IS IN DROP C# ITS FIRST ON THE INTERNET I THINK AND I HAVE TABBEN 3 OTHERS 
FROM RESCUE SUCH AS TEXAS MICKEY FORGET YOUR HEART AND IN MEMORY OF IM GOING FOR THE WHOLE 
ALBUM SO RATE I THINK THIS ONES PRETY ACURATE


----------------------------------------------------------------------------
                             SILVERSTEIN-RESCUE-DANCING ON MY GRAVE
----------------------------------------------------------------------------

INTRO
D#|--------------------------------|
A#|--------------------------------|
F#|--------------------------------|
C#|--------------------------------| X3!!!!!!!!!
G#|-2222-22-22-2222-22-22-22-------|
C#|-2222-22-22-2222-22-22-22-------|


VERSE

D#|--------------------------------------------|
A#|--------------------------------------------|
F#|--------------------------------------------|
C#|--------------------------------------------| X3 !!!!!!!!!!
G#|-2222-2-2-2-2222-2-22-0000-0-0-2222-2-2-2---|
C#|-2222-2-2-2-2222-2-22-0000-0-0-0000-0-0-0---|


VERSE PT.2

D#|--------------------------------------------)
A#|-5-8/-15---5-8/-15-12---5-8/-10---5-8-7b----)
F#|-----------------------------------------7--)
C#|--------------------------------------------)
G#|--------------------------------------------)
C#|--------------------------------------------)
                                               )X1
D#|--------------------------------------      )
A#|-5-8/-15---5-8/-15-12---5-8-7-77-88---      )
F#|--------------------------------------      )
C#|--------------------------------------      )
G#|--------------------------------------      )
C#|--------------------------------------      )


CHORUS

D#|-------------------------------------------------)
A#|-------------------------------------------------)
F#|-------------------------------------------------)
C#|------5--------5------------5555-----------------)
G#|-2-2--3----2-2-3-----0-0-2--3333----5--77-77-----)
C#|-2-2-------2-2-------0-0-2----------5--77-77-----)


VERSE

D#|--------------------------------------------|
A#|--------------------------------------------|
F#|--------------------------------------------|
C#|--------------------------------------------| X3 !!!!!!!!!!
G#|-2222-2-2-2-2222-2-22-0000-0-0-2222-2-2-2---|
C#|-2222-2-2-2-2222-2-22-0000-0-0-0000-0-0-0---|


VERSE PT.2

D#|--------------------------------------------)
A#|-5-8/-15---5-8/-15-12---5-8/-10---5-8-7b----)
F#|-----------------------------------------7--)
C#|--------------------------------------------)
G#|--------------------------------------------)
C#|--------------------------------------------)
                                               )X1
D#|--------------------------------------      )
A#|-5-8/-15---5-8/-15-12---5-8-7-77-88---      )
F#|--------------------------------------      )
C#|--------------------------------------      )
G#|--------------------------------------      )
C#|--------------------------------------      )


CHORUS

D#|-------------------------------------------------)
A#|-------------------------------------------------)
F#|-------------------------------------------------)
C#|------5--------5------------5555-----------------)
G#|-2-2--3----2-2-3-----0-0-2--3333----5--77-77-----)
C#|-2-2-------2-2-------0-0-2----------5--77-77-----)




BREAKDOWN SORTA THING, REALLY ACURATE!!!


D#|---------------------------------------------|
A#|---------------------------------------------|
F#|---------------------------------------------|
C#|----------------------55---77------5---5-77--| X2 !!!!!
G#|-----3p2-5p2-3p2------33-5-55--222-3-5-3-55--|
C#|-222-------------5p4-----5-----222---5-------|

D#|-------------------------------------------------------------------------|
A#|-------------------------------------------------------------------------|
F#|-9-12-11-9-11-12-11-9-9-12-11-9-11-12-11----12-11-9-11-12-11-9-----------|
C#|-----------------------------------------10------------------------------|
G#|-------------------------------------------------------------------------|
C#|-------------------------------------------------------------------------|

D#|-------------------------------------------------------------------------|
A#|-------------------------------------------------------------------------|
F#|----12-11-9-11-12-11-9----12-11-9-11-12-11-9----12-11-9-11-12-11-9-------|
C#|-10--------------------12--------------------12--------------------------|
G#|-------------------------------------------------------------------------|
C#|-------------------------------------------------------------------------|

D#|----------------------------------------|
A#|----------------------------------------|
F#|-11-tremolo---9-tremolo---12-tremolo----|
C#|----------------------------------------|
G#|----------------------------------------|
C#|----------------------------------------|

D#|-----------------------|
A#|-8-12-10-8-10-12-10-8--|
F#|-----------------------|
C#|-----------------------| This last bar X6 !!!!!
G#|-----------------------|
C#|-----------------------|

D#|-------------------------------------------|
A#|-10-tremolo---8-tremolo---12-hold/letring--|
F#|-------------------------------------------|
C#|-------------------------------------------|
G#|-------------------------------------------|
C#|-------------------------------------------|

   __________________________
D#|-------------------------|-------------------------------|
A#|-------------------------|-------------------------------|
F#|-------------------------|-------------------------------|
C#|-------------------------|X3!!--------------------55-77--|
G#|-2222-22-22-2222-22-22-22|-----2222-22-22-2222-22-33-55--|
C#|-2222-22-22-2222-22-22-22|-----2222-22-22-2222-22--------|

D#|-------------------------------------------------)
A#|-------------------------------------------------)
F#|-------------------------------------------------)
C#|------5--------5------------5555-----------------)
G#|-2-2--3----2-2-3-----0-0-2--3333----5--77-77-----)
C#|-2-2-------2-2-------0-0-2----------5--77-77-----)

OUTRO

D#|-------------------------------------------------)
A#|-------------------------------------------------)
F#|-------------------------------------------------)
C#|-----5--------5------------5555------------------)X2
G#|-22--3----222-3-----0-0-2--3333----5--7-2--------)
C#|-222------222-------0-0-2----------5--7-2--------)

END OF SONG THANKS FOR PLAYING
Tap to rate this tab
 
# A B C D E F G H I J K L M N O P Q R S T U V W X Y Z