Song name
# A B C D E F G H I J K L M N O P Q R S T U V W X Y Z

Silverstein - Forget Your Heart tab

Tabbed by: Joshua Garcia (halofreak731@aol.com)

Tabs for the song: Forget Your Heart by Silverstein
Please rate and let me know if you have any corrections. Thank you.


**NOTE - This was taken from my full album tab, which can be found here: 
http://tabs.ultimate-guitar.com/s/silverstein/rescue_album_tab.htm **


Tuning: Half-Step Down (D# G# C# F# A# D#)



Intro
Guitar 1:
D#||--------------------------------------------------------------------|
A#||--------------------------------------------------------------------|
F#||--------------------------------------------------------------------|
C#||----------3---1---0--------0---------------0------------------------| x3
G#||------1----------------1-------1-------0-------3---1---1---0---0----|
D#||--3-3---3---3---3---3----3---3---3-2-2---2---2---2---2---2---2---2--|


D#||-----------------------------------------------------------------|
A#||-----------------------------------------------------------------|
F#||-----------------------------------------------------------------|
C#||----------3---1---0--------0-------------------------------------|
G#||------1----------------1-------1----000---0--0---x-x-xxx-x-xxxx--|
D#||--3-3---3---3---3---3----3---3---3--222---2--2---x-x-xxx-x-xxxx--|



Verse
Guitar 1/2:
D#||------------------------------------------------------------------------------------|
A#||------------------------------------------------------------------------------------|
F#||--3-3-333-2-22-2222--3-3-333-2-22-2222--5-5-5555-55-5555--3-3-333-------------------|
C#||--0-0-000-0-00-0000--1-1-111-1-11-1111--3-3-3333-33-3333--1-1-111--3-33-------------|
G#||--x-x-xxx-x-xx-xxxx--1-1-111-1-11-1111-----------------------------3-33-xxx-x-xxxx--|
D#||--3-3-333-3-33-3333------------------------------------------------1-11-xxx-x-xxxx--|


D#||--------------------------------------------------------------------------|
A#||--------------------------------------------------------------------------|
F#||--2-2-2222-22-2222--3-3-3333-33-3333--5-5-5555-55-5555--3-3---3--3--------|
C#||--0-0-0000-00-0000--3-3-3333-33-3333--3-3-3333-33-3333--1-1---1--1----3~--|
G#||--x-x-xxxx-xx-xxxx--1-1-1111-11-1111----------------------------------3~--|
D#||--3-3-3333-33-3333----------------------------------------------------1~--|



Pre-Chorus
Guitar 1/2:
D#||--------------------------------------------------------------------------------|
A#||--------------------------------------------------------------------------------|
F#||----------------------------------333-------888-------888-----------------------|
C#||--5-----------------3333333333333-333-88888-888-88888-888------------------555--|
G#||--5--55555555555333-1111111111111-----66666-----66666-----8888888877777777-555--|
D#||--3--33333333333111---------------------------------------6666666655555555-333--|
         .............. .............     .....     .....     ................



Chorus
Guitar 1/2:
D#||--------------------------------------------------------------------|
A#||--------------------------------------------------------------------|
F#||---8-88-8888-88-888------------------10-1010-10101010-101010--------|
C#||---8-88-8888-88-888-8-88-8888-88-888-10-1010-10101010-101010--3--4--|
G#||---6-66-6666-66-666-8-88-8888-88-888-8--8-8--8-8-8-8--8-8-8---3--4--|
D#||--------------------6-66-6666-66-666--------------------------1--2--|


D#||-------------------------------------------------------------------------------|
A#||-------------------------------------------------------------------------------|
F#||--------------------8-88-8888-88-888------------------10-1010-10101010-101010--|
C#||---5-55-5555-55-555-8-88-8888-88-888-8-88-8888-88-888-10-1010-10101010-101010--|
G#||---5-55-5555-55-555-6-66-6666-66-666-8-88-8888-88-888-8--8-8---8-8-8-8-8-8-8---|
D#||---3-33-3333-33-333------------------6-66-6666-66-666--------------------------|


D#||--------------------------|
A#||--------------------------|
F#||--8-----------------------|
C#||--8-888888-----pick-------|
G#||--6-666666--------slide---|
D#||--------------------------|
        ......



Verse
Guitar 1/2:
D#||------------------------------------------------------------------------------------|
A#||------------------------------------------------------------------------------------|
F#||--3-3-333-2-22-2222--3-3-333-2-22-2222--5-5-5555-55-5555--3-3-333-------------------|
C#||--0-0-000-0-00-0000--1-1-111-1-11-1111--3-3-3333-33-3333--1-1-111--3-33-------------|
G#||--x-x-xxx-x-xx-xxxx--1-1-111-1-11-1111-----------------------------3-33-xxx-x-xxxx--|
D#||--3-3-333-3-33-3333------------------------------------------------1-11-xxx-x-xxxx--|


D#||--------------------------------------------------------------------|
A#||--------------------------------------------------------------------|
F#||--2-2-2222-22-2222--3-3-3333-33-3333--5-5-5555-55-5555--3~-----5~---|
C#||--0-0-0000-00-0000--3-3-3333-33-3333--3-3-3333-33-3333--1~-----3~---|
G#||--x-x-xxxx-xx-xxxx--1-1-1111-11-1111--------------------------------|
D#||--3-3-3333-33-3333--------------------------------------------------|



Pre-Chorus
Guitar 1/2:
D#||--------------------------------------------------------------------------------|
A#||--------------------------------------------------------------------------------|
F#||----------------------------------333-------888-------888-----------------------|
C#||--5-----------------3333333333333-333-88888-888-88888-888------------------555--|
G#||--5--55555555555333-1111111111111-----66666-----66666-----8888888877777777-555--|
D#||--3--33333333333111---------------------------------------6666666655555555-333--|
         .............. .............     .....     .....     ................



Chorus
Guitar 1/2:
D#||--------------------------------------------------------------------|
A#||--------------------------------------------------------------------|
F#||---8-88-8888-88-888------------------10-1010-10101010-101010--------|
C#||---8-88-8888-88-888-8-88-8888-88-888-10-1010-10101010-101010--3--4--|
G#||---6-66-6666-66-666-8-88-8888-88-888-8--8-8--8-8-8-8--8-8-8---3--4--|
D#||--------------------6-66-6666-66-666--------------------------1--2--|


D#||-------------------------------------------------------------------------------|
A#||-------------------------------------------------------------------------------|
F#||--------------------8-88-8888-88-888------------------10-1010-10101010-101010--|
C#||---5-55-5555-55-555-8-88-8888-88-888-8-88-8888-88-888-10-1010-10101010-101010--|
G#||---5-55-5555-55-555-6-66-6666-66-666-8-88-8888-88-888-8--8-8---8-8-8-8-8-8-8---|
D#||---3-33-3333-33-333------------------6-66-6666-66-666--------------------------|



Bridge
Guitar 1/2:
D#||--------------------------------------------------------------------|
A#||--------------------------------------------------------------------|
F#||---8~-------10~-------------------------5~--------------------------|
C#||---8~-------10~-------5~-------8~-------5~-------8888888888888888---|
G#||---6~-------8~--------5~-------8~-------3~-------6666666666666666---|
D#||----------------------3~-------6~-----------------------------------|
                                                     ................



Interlude
Guitar 1:
D#||--------------------------------------------------------------------|
A#||--------------------------------------------------------------------|
F#||--------------------------------------------------------------------|
C#||----------3---1---0--------0---------------0------------------------| x3
G#||------1----------------1-------1-------0-------3---1---1---0---0----|
D#||--3-3---3---3---3---3----3---3---3-2-2---2---2---2---2---2---2---2--|


D#||------------------------------------------------------|
A#||------------------------------------------------------|
F#||------------------------------------------------------|
C#||----------3---1---0--------0--------------------------|
G#||------1----------------1-------1----0000000000000000--|
D#||--3-3---3---3---3---3----3---3---3--2222222222222222--|
                                        ................



Breakdown
Guitar 1/2:
D#||----------------------------------------------------------------|
A#||----------------------------------------------------------------|
F#||----------------------------------------------------------------|
C#||--000-----0---0--00--------------000-----0---0--00--------------| x4
G#||--111-----1---1--11---111--111---000-----0---0--00---000---000--|
D#||--333-----3---3--33---333--333---222-----2---2--22---222---222--|
                          ...  ...                       ...   ...


Guitar 1:
D#||--13---11----------------13---15---11--------------|
A#||------------15---11---------------------15b16r15---|
F#||---------------------------------------------------|
C#||---------------------------------------------------|
G#||---------------------------------------------------|
D#||---------------------------------------------------|


D#||--13---11-------------------------------|
A#||------------15---11---11h13-------------|
F#||-----------------------------14b15r14~--|
C#||----------------------------------------|
G#||----------------------------------------|
D#||----------------------------------------|


Guitar 1/2:
D#||-------|
A#||-------|
F#||-------|
C#||--555--|
G#||--555--|
D#||--333--|




Chorus / Outro
Guitar 1/2:
D#||--------------------------------------------------------------------|
A#||--------------------------------------------------------------------|
F#||---8-88-8888-88-888------------------10-1010-10101010-101010--------|
C#||---8-88-8888-88-888-8-88-8888-88-888-10-1010-10101010-101010--3--4--|
G#||---6-66-6666-66-666-8-88-8888-88-888-8--8-8--8-8-8-8--8-8-8---3--4--|
D#||--------------------6-66-6666-66-666--------------------------1--2--|


D#||-------------------------------------------------------------------------------|
A#||-------------------------------------------------------------------------------|
F#||--------------------8-88-8888-88-888------------------10-1010-10101010-101010--|
C#||---5-55-5555-55-555-8-88-8888-88-888-8-88-8888-88-888-10-1010-10101010-101010--|
G#||---5-55-5555-55-555-6-66-6666-66-666-8-88-8888-88-888-8--8-8---8-8-8-8-8-8-8---|
D#||---3-33-3333-33-333------------------6-66-6666-66-666--------------------------|


D#||---------------------------------------------|
A#||---------------------------------------------|
F#||--8----------------88888888888---------------|
C#||--8-88888888888888888888888888---3-4---5-\---|
G#||--6-66666666666666666666666666---3-4---5-\---|
D#||---------------------------------1-2---3-\---|
         ..............




Tablature Legend
----------------
 h   - hammer-on
 p   - pull-off
 b   - bend
 r   - release bend
 *   - pinch harmonic
 '   - natural harmonic
 x   - mute note
 .   - palm mute
 /   - slide down
 \   - slide up
Tap to rate this tab
 
# A B C D E F G H I J K L M N O P Q R S T U V W X Y Z