Song name
# A B C D E F G H I J K L M N O P Q R S T U V W X Y Z

Silverstein - Arrivals tab

Tabbed by: Joshua Garcia (halofreak731@aol.com)

Tabs for the song: Arrivals by Silverstein
Please rate and let me know if you have any corrections. Thank you.


Tuning: Half-Step Down (D# G# C# F# A# D#)


Guitar 1:
D#||------------------------------------------------------------------------------|
A#||--------------------------5~--------------------------------------------------|
F#||--5~----------4~----------x-----------2~----------5~----------4~----------2~--|
C#||--x-----------x-----------x-----------x-----------x-----------x-----------x---| x3
G#||--x-----------x-----------3~----------x-----------x-----------x-----------x---|
D#||--5~----------3~----------------------1~----------5~----------3~----------1~--|


D#||------------------------------------------|
A#||--6~----------6~----------5~----------5~--|
F#||--x-----------x-----------x-----------x---|
C#||--x-----------x-----------x-----------x---|
G#||--5~----------5~----------3~----------3~--|
D#||------------------------------------------|


D#||------------------------------------------|
A#||--10~---------10~---------9~----------9~--|
F#||--x-----------x-----------x-----------x---|
C#||--x-----------x-----------x-----------x---|
G#||--8~----------8~----------8~----------8~--|
D#||------------------------------------------|


D#||------|
A#||--5~--|
F#||--x---|
C#||--x---|
G#||--3~--|
D#||------|




Tablature Legend
----------------
 h   - hammer-on
 p   - pull-off
 b   - bend
 r   - release bend
 *   - pinch harmonic
 '   - natural harmonic
 x   - mute note
 .   - palm mute
 /   - slide down
 \   - slide up
Tap to rate this tab
# A B C D E F G H I J K L M N O P Q R S T U V W X Y Z