Song name
# A B C D E F G H I J K L M N O P Q R S T U V W X Y Z

Silverstein - Hide Your Secrets tab

Tabbed by: Joshua Garcia (halofreak731@aol.com)

Tabs for the song: Hide Your Secrets by Silverstein
Please rate and let me know if you have any corrections. Thank you.


Tuning: Drop C# (C# G# C# F# A# D#)


Intro
Guitar 1:
D#||---------------------------------------------------------|
A#||---------------------------------------------------------|
F#||------5-----5-----5-----5--9------9-------7------7-------|
C#||----5-----5-----5-----5------10-----10------9------9-----| x4
G#||--8-----8-----7-----7-----------0------0------10-----10--|
C#||---------------------------------------------------------|


Guitar 2:
D#||--13~---------------------------15---13---12--|--13~---------------------------17---15---13--|
A#||---------------13~-----------13---------------|---------------13~-----------13---------------|
F#||--------------------------14------------------|--------------------------14------------------|
C#||----------------------------------------------|----------------------------------------------|
G#||----------------------------------------------|----------------------------------------------|
C#||----------------------------------------------|----------------------------------------------|


D#||--15~---13-12-------------------15---13---12--|
A#||---------------13~-----------13---------------|
F#||--------------------------14------------------|
C#||----------------------------------------------|
G#||----------------------------------------------|
C#||----------------------------------------------|



Guitar 1:
D#||------------------------------------------------------|
A#||------------------------------------------------------|
F#||--121212121212-101010101010-9-9-9-9-9-9-9-9-9-9-9-9---|
C#||--101010101010-101010101010-101010101010101010101010--|
G#||--8-8-8-8-8-8--8-8-8-8-8-8--8-8-8-8-8-8-8-8-8-8-8-8---|
C#||------------------------------------------------------|


Guitar 2:
D#||--13~--|
A#||-------|
F#||-------|
C#||-------|
G#||-------|
C#||-------|


Guuitar 1:
D#||-------------------------------------------------------------|
A#||-------------------------------------------------------------|
F#||--12---12---12---10---10---10---9----9----9----9----9----9---|
C#||--10---10---10---10---10---10---10---10---10---10---10---10--|
G#||--8----8----8----8----8----8----8----8----8----8----8----8---|
C#||-------------------------------------------------------------|


Guitar 2:
D#||-------------------------------------------------------------|
A#||-------------------------------------------------------------|
F#||-------------------------------------------------------------|
C#||--3----3----3----3----3----3----3----3----3----3----3----3---|
G#||--3----3----3----3----3----3----3----3----3----3----3----3---|
C#||--3----3----3----3----3----3----3----3----3----3----3----3---|



Verse
Guitar 1/2:
D#||----------------------------------------------|------------------------|
A#||----------------------------------------------|------------------------|
F#||-------------------------5--55--55--55--5555--|------------------------|
C#||--1010109---5--55--5555--5--55--55--55--5555--|--10-109-9-5--55--5555--|
G#||--7-7-7-7---3--33--3333--3--33--32--22--2222--|--7--7-7-7-3--33--3333--|
C#||--7-7-7-7---3--33--3333-----------------------|--7--7-7-7-3--33--3333--|


Guitar 1:
D#||-------------------------|
A#||-------------------------|
F#||--4--45--54--44---4444---|
C#||-------------------------|
G#||-------------------------|
C#||-------------------------|


Guitar 2:
D#||-------------------------|
A#||-------------------------|
F#||-------------------------|
C#||--5--55--55--55--55--55--|
G#||--5--55--55--55--55--55--|
C#||--5--55--55--55--55--55--|


Guitar 1/2:
D#||----------------------------------------------|-------------------------|
A#||----------------------------------------------|-------------------------|
F#||-------------------------5--55--55--55--5555--|-------------------------|
C#||--1010109--x5--55--5555--5--55--55--55--5555--|--1010109--x5--55--5555--|
G#||--7-7-7-7--x3--33--3333--3--33--32--22--2222--|--7-7-7-7--x3--33--3333--|
C#||--7-7-7-7--x3--33--3333-----------------------|--7-7-7-7--x3--33--3333--|


Guitar 1:
D#||-------------------------|
A#||-------------------------|
F#||--4--54--7---77---7777---|
C#||-------------------------|
G#||-------------------------|
C#||-------------------------|


Guitar 2:
D#||-------------------------|
A#||-------------------------|
F#||-------------------------|
C#||--5--55--55--55--555555--|
G#||--5--55--55--55--555555--|
C#||--5--55--55--55--555555--|



Chorus
Guitar 1:
D#||--151515----------------------151515-----------------------|
A#||---------131313-121212-131313--------131313-121212---------|
F#||---------------------------------------------------121212--|
C#||-----------------------------------------------------------|
G#||-----------------------------------------------------------|
C#||-----------------------------------------------------------|


D#||--151515--------------------------------------------------|
A#||---------131313-121212-131313-121212-131313-151515151515--|
F#||----------------------------------------------------------|
C#||----------------------------------------------------------|
G#||----------------------------------------------------------|
C#||----------------------------------------------------------|


D#||--151515----------------------151515-----------------------|
A#||---------131313-121212-131313--------131313-121212---------|
F#||---------------------------------------------------121212--|
C#||-----------------------------------------------------------|
G#||-----------------------------------------------------------|
C#||-----------------------------------------------------------|


D#||---------------------------------------------------|
A#||--12-12121212-13-13131313-15-15151515-15-15151515--|
F#||---------------------------------------------------|
C#||---------------------------------------------------|
G#||---------------------------------------------------|
C#||---------------------------------------------------|


Guitar 2:
D#||----------------------------------------------------------------|
A#||----------------------------------------------------------------|
F#||----------------------------------------------------------------|
C#||--3-33-33-3333-2-22-22-2222-10-1010-1010-10101010-5-55-55-5555--|
G#||--3-33-33-3333-3-33-33-3333-7--7-7--7-7--7-7-7-7--5-55-55-5555--|
C#||--3-33-33-3333-2-22-22-2222-7--7-7--7-7--7-7-7-7--5-55-55-5555--|


D#||-------------------------------------------------------|
A#||-------------------------------------------------------|
F#||-------------------------------------------------------|
C#||--3-33-33-3333-2-22-22-2222-5-55-55-5555-5-55-55-5555--|
G#||--3-33-33-3333-3-33-33-3333-5-55-55-5555-5-55-55-5555--|
C#||--3-33-33-3333-2-22-22-2222-5-55-55-5555-5-55-55-5555--|




Guitar 1:
D#||------------------------------------|
A#||------------------------------------|
F#||-----------555555-----------555555--|
C#||--3--3--3----------2--2--2----------|
G#||--3--3--3----------3--3--3----------|
C#||--3--3--3----------2--2--2----------|


Guitar 2:
D#||------------------------------------|
A#||------------------------------------|
F#||------------------------------------|
C#||--3--3--3----------2--2--2----------|
G#||--3--3--3----------3--3--3----------|
C#||--3--3--3----------2--2--2----------|


Guitar 1:
D#||--151515----------------------151515-----------------------|
A#||---------131313-121212-131313--------131313-121212---------|
F#||---------------------------------------------------121212--|
C#||-----------------------------------------------------------|
G#||-----------------------------------------------------------|
C#||-----------------------------------------------------------|


Guitar 2:
D#||--------------------------------------|
A#||--------------------------------------|
F#||--------------------------------------|
C#||--10-1010-1010-10101010-9-99-99-9999--|
G#||--7--7-7--7-7--7-7-7-7--5-55-55-5555--|
C#||--7--7-7--7-7--7-7-7-7--5-55-55-5555--|


Guitar 1:
D#||------------------------------------|
A#||------------------------------------|
F#||-----------555555-----------555555--|
C#||--3--3--3----------2--2--2----------|
G#||--3--3--3----------3--3--3----------|
C#||--3--3--3----------2--2--2----------|


Guitar 2:
D#||------------------------------------|
A#||------------------------------------|
F#||------------------------------------|
C#||--3--3--3----------2--2--2----------|
G#||--3--3--3----------3--3--3----------|
C#||--3--3--3----------2--2--2----------|


Guitar 1:
D#||--151515----------------------------------------------|
A#||---------131313-121212-131313-15--15--15--15--15--15--|
F#||------------------------------------------------------|
C#||------------------------------------------------------|
G#||------------------------------------------------------|
C#||------------------------------------------------------|


Guitar 2:
D#||---------------------------------|
A#||---------------------------------|
F#||---------------------------------|
C#||--5-55-55-5555-5--5--5--5--5--5--|
G#||--5-55-55-5555-5--5--5--5--5--5--|
C#||--5-55-55-5555-5--5--5--5--5--5--|



Verse
Guitar 1:
D#||--------|
A#||--------|
F#||--------|
C#||--7777--|
G#||--7777--|
C#||--7777--|


Guitar 1/2:
D#||------------------------------------|------------------------|
A#||------------------------------------|------------------------|
F#||---------------5--55--55--55--5555--|------------------------|
C#||--5--55--5555--5--55--55--55--5555--|--10-109-9-5--55--5555--|
G#||--3--33--3333--3--33--32--22--2222--|--7--7-7-7-3--33--3333--|
C#||--3--33--3333-----------------------|--7--7-7-7-3--33--3333--|

Guitar 1:
D#||-------------------------|
A#||-------------------------|
F#||--4--45--54--44---4444---|
C#||-------------------------|
G#||-------------------------|
C#||-------------------------|


Guitar 2:
D#||-------------------------|
A#||-------------------------|
F#||-------------------------|
C#||--5--55--55--55--55--55--|
G#||--5--55--55--55--55--55--|
C#||--5--55--55--55--55--55--|


Guitar 1/2:
D#||----------------------------------------------|-------------------------|
A#||----------------------------------------------|-------------------------|
F#||-------------------------5--55--55--55--5555--|-------------------------|
C#||--1010109--x5--55--5555--5--55--55--55--5555--|--1010109--x5--55--5555--|
G#||--7-7-7-7--x3--33--3333--3--33--32--22--2222--|--7-7-7-7--x3--33--3333--|
C#||--7-7-7-7--x3--33--3333-----------------------|--7-7-7-7--x3--33--3333--|


Guitar 1:
D#||-------------------------|
A#||-------------------------|
F#||--4--54--7---77---7777---|
C#||-------------------------|
G#||-------------------------|
C#||-------------------------|


Guitar 2:
D#||-------------------------|
A#||-------------------------|
F#||-------------------------|
C#||--5--55--55--55--555555--|
G#||--5--55--55--55--555555--|
C#||--5--55--55--55--555555--|



Chorus
Guitar 1:
D#||--151515----------------------151515-----------------------|
A#||---------131313-121212-131313--------131313-121212---------|
F#||---------------------------------------------------121212--|
C#||-----------------------------------------------------------|
G#||-----------------------------------------------------------|
C#||-----------------------------------------------------------|


D#||--151515--------------------------------------------------|
A#||---------131313-121212-131313-121212-131313-151515151515--|
F#||----------------------------------------------------------|
C#||----------------------------------------------------------|
G#||----------------------------------------------------------|
C#||----------------------------------------------------------|


D#||--151515----------------------151515-----------------------|
A#||---------131313-121212-131313--------131313-121212---------|
F#||---------------------------------------------------121212--|
C#||-----------------------------------------------------------|
G#||-----------------------------------------------------------|
C#||-----------------------------------------------------------|


D#||---------------------------------------------------|
A#||--12-12121212-13-13131313-15-15151515-15-15151515--|
F#||---------------------------------------------------|
C#||---------------------------------------------------|
G#||---------------------------------------------------|
C#||---------------------------------------------------|


Guitar 2:
D#||-------------------------------------------------------|
A#||-------------------------------------------------------|
F#||-------------------------------------------------------|
C#||--3-33-33-3333-2-22-22-2222-7-77-77-7777-5-55-55-5555--|
G#||--3-33-33-3333-3-33-33-3333-7-77-77-7777-5-55-55-5555--|
C#||--3-33-33-3333-2-22-22-2222-7-77-77-7777-5-55-55-5555--|


D#||-------------------------------------------------------|
A#||-------------------------------------------------------|
F#||-------------------------------------------------------|
C#||--3-33-33-3333-2-22-22-2222-5-55-55-5555-5-55-55-5555--|
G#||--3-33-33-3333-3-33-33-3333-5-55-55-5555-5-55-55-5555--|
C#||--3-33-33-3333-2-22-22-2222-5-55-55-5555-5-55-55-5555--|




Guitar 1/2:
D#||------------------------------------|
A#||------------------------------------|
F#||-----------555555-----------555555--|
C#||--3--3--3----------2--2--2----------|
G#||--3--3--3----------3--3--3----------|
C#||--3--3--3----------2--2--2----------|


Guitar 2:
D#||------------------------------------|
A#||------------------------------------|
F#||------------------------------------|
C#||--3--3--3----------2--2--2----------|
G#||--3--3--3----------3--3--3----------|
C#||--3--3--3----------2--2--2----------|


Guitar 1:
D#||--151515----------------------151515-----------------------|
A#||---------131313-121212-131313--------131313-121212---------|
F#||---------------------------------------------------121212--|
C#||-----------------------------------------------------------|
G#||-----------------------------------------------------------|
C#||-----------------------------------------------------------|


Guitar 2:
D#||--------------------------------------|
A#||--------------------------------------|
F#||--------------------------------------|
C#||--10-1010-1010-10101010-9-99-99-9999--|
G#||--7--7-7--7-7--7-7-7-7--5-55-55-5555--|
C#||--7--7-7--7-7--7-7-7-7--5-55-55-5555--|


Guitar 1/2:
D#||------------------------------------|
A#||------------------------------------|
F#||-----------555555-----------555555--|
C#||--3--3--3----------2--2--2----------|
G#||--3--3--3----------3--3--3----------|
C#||--3--3--3----------2--2--2----------|


Guitar 1:
D#||--151515------------------------------------------------|
A#||---------131313-121212-131313-151515151515151515151515--|
F#||--------------------------------------------------------|
C#||--------------------------------------------------------|
G#||--------------------------------------------------------|
C#||--------------------------------------------------------|


Guitar 2:
D#||------------------------------|
A#||------------------------------|
F#||------------------------------|
C#||--5-55-55-5555-5-55-55--5555--|
G#||--5-55-55-5555-5-55-55--5555--|
C#||--5-55-55-5555-5-55-55--5555--|



Bridge
Guitar 1:
D#||--------------------------------------12-12-12-12-12-12-12-12-12-12----12--|
A#||--13-13-13-13-13-13-13-13-13-13-12-13-------------------------------15-----|
F#||---------------------------------------------------------------------------|
C#||---------------------------------------------------------------------------|
G#||---------------------------------------------------------------------------|
C#||---------------------------------------------------------------------------|


D#||----------------------------------------------------------------------------------|
A#||--12-12-12-12-12-12-12-12-12-12-12-12-------------------1212121212~--1212121212~--|
F#||--------------------------------------14-14-14-14-14-14---------------------------|
C#||----------------------------------------------------------------------------------|
G#||----------------------------------------------------------------------------------|
C#||----------------------------------------------------------------------------------|


D#||--------------------------------------12-12-12-12-12-12-12-12-12-12----12--|
A#||--13-13-13-13-13-13-13-13-13-13-12-13-------------------------------15-----|
F#||---------------------------------------------------------------------------|
C#||---------------------------------------------------------------------------|
G#||---------------------------------------------------------------------------|
C#||---------------------------------------------------------------------------|


D#||--------------------------------------------------------|
A#||--12-12-12-12-12-12-12-12-12-12-12-12-------------------|
F#||--------------------------------------14~----------12~--|
C#||--------------------------------------------------------|
G#||--------------------------------------------------------|
C#||--------------------------------------------------------|


Guitar 2 (Dub):
D#||--------------------------------------12-12-12-12-12-12-12-12-12-12-13-15--|
A#||--13-13-13-13-13-13-13-13-13-13-12-13--------------------------------------|
F#||---------------------------------------------------------------------------|
C#||---------------------------------------------------------------------------|
G#||---------------------------------------------------------------------------|
C#||---------------------------------------------------------------------------|


D#||----------------------------------------------------------------------------------|
A#||--12-12-12-12-12-12-12-12-12-12-12-12-------------------1212121212~--1212121212~--|
F#||--------------------------------------14-14-14-14-14-14---------------------------|
C#||----------------------------------------------------------------------------------|
G#||----------------------------------------------------------------------------------|
C#||----------------------------------------------------------------------------------|


D#||-----------------------------------12-15-15-15-13-13-13-12-12-12-12-13-15--|
A#||--13-13-13-13-13-13-13-13-13-13-15-----------------------------------------|
F#||---------------------------------------------------------------------------|
C#||---------------------------------------------------------------------------|
G#||---------------------------------------------------------------------------|
C#||---------------------------------------------------------------------------|


D#||--------------------------------------------------------|
A#||--12-12-12-12-12-12-12-12-12-12-12-12--------------12~--|
F#||--------------------------------------14~---------------|
C#||--------------------------------------------------------|
G#||--------------------------------------------------------|
C#||--------------------------------------------------------|


Guitar 3:
D#||---------------------------------------------------------------------------|
A#||---------------------------------------------------------------------------|
F#||---------------------------------------------------------------------------|
C#||--10-10-10-10-10-10-10-10-10-10-10-10-10-10-10-10-10-10-10-10-10-10-10-10--|
G#||--10-10-10-10-10-10-10-10-10-10-10-10-8--8--8--8--8--8--8--8--8--8--8--8---|
C#||--10-10-10-10-10-10-10-10-10-10-10-10-8--8--8--8--8--8--8--8--8--8--8--8---|


D#||---------------------------------------------------|
A#||---------------------------------------------------|
F#||--9-9-9-9-9-9-9-9-9-9-9-9--------------------------|
C#||--9-9-9-9-9-9-9-9-9-9-9-9-3-3-3-3-3-3-5-5-5-5-5-5--|
G#||--7-7-7-7-7-7-7-7-7-7-7-7-3-3-3-3-3-3-5-5-5-5-5-5--|
C#||--------------------------3-3-3-3-3-3-5-5-5-5-5-5--|


D#||---------------------------------------------------------------------------|
A#||---------------------------------------------------------------------------|
F#||---------------------------------------------------------------------------|
C#||--10-10-10-10-10-10-10-10-10-10-10-10-10-10-10-10-10-10-10-10-10-10-10-10--|
G#||--10-10-10-10-10-10-10-10-10-10-10-10-8--8--8--8--8--8--8--8--8--8--8--8---|
C#||--10-10-10-10-10-10-10-10-10-10-10-10-8--8--8--8--8--8--8--8--8--8--8--8---|



D#||------------------------------------------|
A#||------------------------------------------|
F#||--9-9-9-9-9-9-9-9-9-9-9-9-----------------|
C#||--9-9-9-9-9-9-9-9-9-9-9-9-3~----------5~--|
G#||--7-7-7-7-7-7-7-7-7-7-7-7-3~----------5~--|
C#||--------------------------3~----------5~--|



Interlude
Guitar 1:
D#||---------------------------------------------------------|
A#||---------------------------------------------------------|
F#||------5-----5-----5-----5--9------9-------7------7-------|
C#||----5-----5-----5-----5------10-----10------9------9-----| x3
G#||--8-----8-----7-----7-----------0------0------10-----10--|
C#||---------------------------------------------------------|


D#||------------------------------------------|
A#||------------------------------------------|
F#||------5-----5-----5-----5--9------9-------|
C#||----5-----5-----5-----5------10-----10----|
G#||--8-----8-----7-----7-----------0------0--|
C#||------------------------------------------|


Guitar 2:
D#||--13~---------------------------15---13---12--|--13~---------------------------17---15---13--|
A#||---------------13~-----------13---------------|---------------13~-----------13---------------|
F#||--------------------------14------------------|--------------------------14------------------|
C#||----------------------------------------------|----------------------------------------------|
G#||----------------------------------------------|----------------------------------------------|
C#||----------------------------------------------|----------------------------------------------|


D#||--15~---13-12-------------------15---13---12--(13~)--|
A#||---------------13~-----------13----------------------|
F#||--------------------------14-------------------------|
C#||-----------------------------------------------------|
G#||-----------------------------------------------------|
C#||-----------------------------------------------------|


D#||---------------------------------------------------|
A#||---------------------------------------------------|
F#||---------------------------------------------------|
C#||--10-10-10-10-10-10-10-10-10-10-10-10---------7-7--|
G#||--8--8--8--8--8--8--7--7--7--7--7--7--7-7-7-7-7-7--|
C#||--------------------------------------7-7-7-7-7-7--|
      .  .  .  .  .  .  .  .  .  .  .  .  . . . .


Guitar 1/2:
D#||------------------|
A#||------------------|
F#||------------------|
C#||--5555----555555--|
G#||--5555----555555--|
C#||--5555----555555--|



Chorus
Guitar 1:
D#||--151515----------------------151515-----------------------|
A#||---------131313-121212-131313--------131313-121212---------|
F#||---------------------------------------------------121212--|
C#||-----------------------------------------------------------|
G#||-----------------------------------------------------------|
C#||-----------------------------------------------------------|


D#||--151515--------------------------------------------------|
A#||---------131313-121212-131313-121212-131313-151515151515--|
F#||----------------------------------------------------------|
C#||----------------------------------------------------------|
G#||----------------------------------------------------------|
C#||----------------------------------------------------------|


D#||--151515----------------------151515-----------------------|
A#||---------131313-121212-131313--------131313-121212---------|
F#||---------------------------------------------------121212--|
C#||-----------------------------------------------------------|
G#||-----------------------------------------------------------|
C#||-----------------------------------------------------------|


D#||---------------------------------------------------|
A#||--12-12121212-13-13131313-15-15151515-15-15151515--|
F#||---------------------------------------------------|
C#||---------------------------------------------------|
G#||---------------------------------------------------|
C#||---------------------------------------------------|


Guitar 2:
D#||-------------------------------------------------------|
A#||-------------------------------------------------------|
F#||-------------------------------------------------------|
C#||--3-33-33-3333-2-22-22-2222-7-77-77-7777-5-55-55-5555--|
G#||--3-33-33-3333-3-33-33-3333-7-77-77-7777-5-55-55-5555--|
C#||--3-33-33-3333-2-22-22-2222-7-77-77-7777-5-55-55-5555--|


D#||-------------------------------------------------------|
A#||-------------------------------------------------------|
F#||-------------------------------------------------------|
C#||--3-33-33-3333-2-22-22-2222-5-55-55-5555-5-55-55-5555--|
G#||--3-33-33-3333-3-33-33-3333-5-55-55-5555-5-55-55-5555--|
C#||--3-33-33-3333-2-22-22-2222-5-55-55-5555-5-55-55-5555--|




Guitar 1/2:
D#||------------------------------------|
A#||------------------------------------|
F#||-----------555555-----------555555--|
C#||--3--3--3----------2--2--2----------|
G#||--3--3--3----------3--3--3----------|
C#||--3--3--3----------2--2--2----------|


Guitar 1:
D#||--151515----------------------151515-----------------------|
A#||---------131313-121212-131313--------131313-121212---------|
F#||---------------------------------------------------121212--|
C#||-----------------------------------------------------------|
G#||-----------------------------------------------------------|
C#||-----------------------------------------------------------|


Guitar 2:
D#||--------------------------------------|
A#||--------------------------------------|
F#||--------------------------------------|
C#||--10-1010-1010-10101010-9-99-99-9999--|
G#||--7--7-7--7-7--7-7-7-7--5-55-55-5555--|
C#||--7--7-7--7-7--7-7-7-7--5-55-55-5555--|


Guitar 1:
D#||------------------------------------|
A#||------------------------------------|
F#||-----------555555-----------555555--|
C#||--3--3--3----------2--2--2----------|
G#||--3--3--3----------3--3--3----------|
C#||--3--3--3----------2--2--2----------|


Guitar 2:
D#||----------------------------333333--|
A#||-----------555555-------------------|
F#||------------------------------------|
C#||--3--3--3----------2--2--2----------|
G#||--3--3--3----------3--3--3----------|
C#||--3--3--3----------2--2--2----------|


Guitar 1:
D#||--151515------------------------------------------------|
A#||---------131313-121212-131313-151515151515151515151515--|
F#||--------------------------------------------------------|
C#||--------------------------------------------------------|
G#||--------------------------------------------------------|
C#||--------------------------------------------------------|


Guitar 2:
D#||------------------------------|
A#||------------------------------|
F#||------------------------------|
C#||--5-55-55-5555-5-55-55--5555--|
G#||--5-55-55-5555-5-55-55--5555--|
C#||--5-55-55-5555-5-55-55--5555--|



Chorus / Outro
Guitar 1:
D#||-----------------------------------|
A#||-----------------------------------|
F#||----------555555-----------555555--|
C#||--333333----------2--2--2----------|
G#||--333333----------3--3--3----------|
C#||--333333----------2--2--2----------|


Guitar 2:
D#||----------------------------------|
A#||---------666666-----------555555--|
F#||----------------------------------|
C#||--33333----------2--2--2----------|
G#||--33333----------3--3--3----------|
C#||--33333----------2--2--2----------|


Guitar 1:
D#||--151515----------------------151515-----------------------|
A#||---------131313-121212-131313--------131313-121212---------|
F#||---------------------------------------------------121212--|
C#||-----------------------------------------------------------|
G#||-----------------------------------------------------------|
C#||-----------------------------------------------------------|


Guitar 2:
D#||--------------------------------------|
A#||--------------------------------------|
F#||--------------------------------------|
C#||--10-1010-1010-10101010-9-99-99-9999--|
G#||--7--7-7--7-7--7-7-7-7--5-55-55-5555--|
C#||--7--7-7--7-7--7-7-7-7--5-55-55-5555--|


Guitar 1:
D#||-----------------------------------|
A#||-----------------------------------|
F#||----------555555-----------555555--|
C#||--333333----------2--2--2----------|
G#||--333333----------3--3--3----------|
C#||--333333----------2--2--2----------|


Guitar 2:
D#||----------------------------333333--|
A#||-----------555555-------------------|
F#||------------------------------------|
C#||--333333----------2--2--2-----------|
G#||--333333----------3--3--3-----------|
C#||--333333----------2--2--2-----------|


Guitar 1/2:
D#||-------------------------------|
A#||-------------------------------|
F#||-------------------------------|
C#||--10~----------9~----------7~--|
G#||--7-~----------5~----------3~--|
C#||--7-~----------5~----------3~--|




Tablature Legend
----------------
 h   - hammer-on
 p   - pull-off
 b   - bend
 r   - release bend
 *   - pinch harmonic
 '   - natural harmonic
 x   - mute note
 .   - palm mute
 /   - slide down
 \   - slide up
Tap to rate this tab
# A B C D E F G H I J K L M N O P Q R S T U V W X Y Z