Song name
# A B C D E F G H I J K L M N O P Q R S T U V W X Y Z

Silverstein - This Is How tab

Tabbed by: Joshua Garcia (halofreak731@aol.com)

Tabs for the song: This Is How by Silverstein
Please rate and let me know if you have any corrections. Thank you.


Tuning: Half-Step Down (D# G# C# F# A# D#)


Guitar 1:
D#||--------------------------------------------------------------2~--|
A#||--------3~--------------3~--------------3~--------------5~----3~--|
F#||-----2~--------------0~--------------2~--------------2~-------x---|
C#||--0~------------------------------4~--------------2~----------4~--| x2
G#||------------------2~------------------------------------------x---|
D#||--------------------------------------------------------------2~--|


D#||------------------------------------------------------------------|
A#||--------3~--------------------------------------------------------|
F#||-----2~-------2~---------2~------------------------------2~-------|
C#||--0~-------------------------------------4~--------0~----------0--| x3
G#||-------------------4~----------4---2~----------2------------------|
D#||------------------------------------------------------------------|


D#||-----------------------------------------|
A#||--------3~-------------------------3~----|
F#||-----2~-------2~---------2~--------2~----|
C#||--0~-------------------------------0~----|
G#||-------------------4~----------4---------|
D#||-----------------------------------------|


Guitar 2:
D#||------------------------------------------------------------------------|
A#||--7777777777777777-8888888888888888-7777777777777777-55555555-----------|
F#||--------------------------------------------------------------66666666--|
C#||------------------------------------------------------------------------|
G#||------------------------------------------------------------------------|
D#||------------------------------------------------------------------------|


D#||---------------------------------------------------------------------------------------|
A#||-------------------5555555555555555-7777777777777777-10101010101010101010101010101010--|
F#||--7777777777777777---------------------------------------------------------------------|
C#||---------------------------------------------------------------------------------------| x3
G#||---------------------------------------------------------------------------------------|
D#||---------------------------------------------------------------------------------------|


D#||-----------------------------------------|
A#||-------------------5555555555555555------|
F#||--7777777777777777-------------------7~--|
C#||-----------------------------------------|
G#||-----------------------------------------|
D#||-----------------------------------------|




Tablature Legend
----------------
 h   - hammer-on
 p   - pull-off
 b   - bend
 r   - release bend
 *   - pinch harmonic
 '   - natural harmonic
 x   - mute note
 .   - palm mute
 /   - slide down
 \   - slide up
Tap to rate this tab
# A B C D E F G H I J K L M N O P Q R S T U V W X Y Z