Song name
# A B C D E F G H I J K L M N O P Q R S T U V W X Y Z

Silverstein - The Wind Shifts tab

Tabbed by: Joshua Garcia (halofreak731@aol.com)

Tabs for the song: The Wind Shifts by Silverstein
Please rate and let me know if you have any corrections. Thank you.


Tuning: Drop A# (A# F A# D# G C)


Guitar 1/2:
C ||-------------------------------------------------------------------|
G ||-------------------------------------------------------------------|
D#||-------------------3~--------------------------------5~--------6~--|
A#||--0~---------------3~---------------3~---------------5~--------6~--| x2
F ||--0~---------------1~---------------3~---------------3~--------4~--|
A#||--0~--------------------------------3~-----------------------------|


Guitar 1:
C ||--13-13-13-13-13-13-13-13-12-12-12-12-12-12--------|
G ||--------------------------------------------11-11--|
D#||---------------------------------------------------|
A#||---------------------------------------------------|
F ||---------------------------------------------------|
A#||---------------------------------------------------|


C ||---------------------------------------------------|
G ||--15-15-15-15-15-15-15-15-11-11-11-11-11-11-11-11--|
D#||---------------------------------------------------|
A#||---------------------------------------------------|
F ||---------------------------------------------------|
A#||---------------------------------------------------|


C ||--13-13-13-13-13-13-13-13-15-15-15-15-15-15-15-15--|
G ||---------------------------------------------------|
D#||---------------------------------------------------|
A#||---------------------------------------------------|
F ||---------------------------------------------------|
A#||---------------------------------------------------|


C ||--13-13-13-13-13-13-13-13-13-13-13-13-13-13-13-13--|
G ||---------------------------------------------------|
D#||---------------------------------------------------|
A#||---------------------------------------------------|
F ||---------------------------------------------------|
A#||---------------------------------------------------|


C ||--13-13-13-13-13-13-13-13-12-12-12-12-12-12--------|
G ||--------------------------------------------11-11--|
D#||---------------------------------------------------|
A#||---------------------------------------------------|
F ||---------------------------------------------------|
A#||---------------------------------------------------|


C ||---------------------------------------------------|
G ||--15-15-15-15-15-15-15-15-11-11-11-11-11-11-11-11--|
D#||---------------------------------------------------|
A#||---------------------------------------------------|
F ||---------------------------------------------------|
A#||---------------------------------------------------|


C ||--13-13-13-13-13-13-13-13-15-15-15-15-15-15-15-15--|
G ||---------------------------------------------------|
D#||---------------------------------------------------|
A#||---------------------------------------------------|
F ||---------------------------------------------------|
A#||---------------------------------------------------|


C ||--13~--|
G ||-------|
D#||-------|
A#||-------|
F ||-------|
A#||-------|


Guitar 2:
C ||-------------------------------------------------------------------|
G ||-------------------------------------------------------------------|
D#||--3-3-3-3-3-3-3-3-5-5-5-5-5-5-5-5----------------------------------|
A#||--3-3-3-3-3-3-3-3-5-5-5-5-5-5-5-5-0-0-0-0-0-0-0-0-3-3-3-3-3-3-3-3--| x3
F ||--1-1-1-1-1-1-1-1-3-3-3-3-3-3-3-3-0-0-0-0-0-0-0-0-3-3-3-3-3-3-3-3--|
A#||----------------------------------0-0-0-0-0-0-0-0-3-3-3-3-3-3-3-3--|


C ||--------------------------------------|
G ||--------------------------------------|
D#||--3-3-3-3-3-3-3-3-5-5-5-5-5-5-5-5-----|
A#||--3-3-3-3-3-3-3-3-5-5-5-5-5-5-5-5-0~--|
F ||--1-1-1-1-1-1-1-1-3-3-3-3-3-3-3-3-0~--|
A#||----------------------------------0~--|




Tablature Legend
----------------
 h   - hammer-on
 p   - pull-off
 b   - bend
 r   - release bend
 *   - pinch harmonic
 '   - natural harmonic
 x   - mute note
 .   - palm mute
 /   - slide down
 \   - slide up
Tap to rate this tab
# A B C D E F G H I J K L M N O P Q R S T U V W X Y Z