Song name
# A B C D E F G H I J K L M N O P Q R S T U V W X Y Z

Silverstein - California tab

Tabbed by: Joshua Garcia (halofreak731@aol.com)

Tabs for the song: California by Silverstein
Please rate and let me know if you have any corrections. Thank you.


Tuning: Guitar 1: Half-Step Down (D# G# C# F# A# D#)


Intro
Guitar 1:
D#||---------------------------------------------------------|
A#||--10--------------10--------------8--7--------8--7-------|
F#||--x---12--11------x---12--11------x-----7--0--x-----7--0-|
C#||--x-----------12--x-----------12--x-----------x----------|
G#||--10--------------10--------------7-----------7----------|
D#||---------------------------------------------------------|


D#||--------------------------------------------------------|
A#||--8---7--------8--7------------------------12---10------|
F#||--x------7--0--x-----7--0--12--11----------x---------12-|
C#||--x------------x-----------x-------12--12--x------------|
G#||--5------------5-----------x---------------x------------|
D#||---------------------------10--------------10-----------|



Pre-Verse
Guitar 1:
D#||-------------------------------------------------------------------|
A#||-------------------------------------------------------------------|
F#||--1616--16--161414--14--14---------12--1212--121212-11-1111-7--777-|
C#||--x-x---x---x-x-x---x---x---x-x-x--x---x-x---x-x-x--x--x-x--x--xxx-|
G#||--1414--14--141212--12--12--x-x-x--10--1010--101010-9--9-9--5--555-|
D#||----------------------------x-x-x----------------------------------|


D#||----------------------------------------------------------------------|
A#||----------------------------------------------------------------------|
F#||--1616--16--161414--14--14--121212--19--1919--191919-12--1212--121212-|
C#||--x-x---x---x-x-x---x---x---x-x-x---x---x-x---x-x-x--x---x-x---x-x-x--|
G#||--1414--14--141212--12--12--101010--17--1717--171717-10--1010--101010-|
D#||----------------------------------------------------------------------|


Guitar 2:
D#||-------------------------------------------------|
A#||-------------------------------------------------|
F#||-------------------------5--55--555--4--44--4444-|
C#||--22--2--222--2--2-------5--55--555--5--55--5555-| x2
G#||--22--2--222--2--2-------3--33--333--2--22--2222-|
D#||--00--0--000--0--0--000--------------------------|
                        ...


Guitar 1:
D#||-----------------------------------|---------------------------|
A#||-----------------------------------|---------------------------|
F#||--1111--11--111212--12--12--14--14-|--99999999--1212121212-11~-|
C#||--x-x---x---x-x-x---x---x---x---x--|--xxxxxxxx--x-x-x-x-x--x---|
G#||--9-9---9---9-1010--10--10--12--12-|--77777777--1010101010-9-~-|
D#||-----------------------------------|---------------------------|


Guitar 2:
D#||-----------------------|--------------|
A#||-----------------------|--------------|
F#||--77--7--777--7--77777-|--55555555--7-|
C#||--00--0--000--0--00000-|--55555555--7-|
G#||--00--0--000--0--00000-|--33333333--5-|
D#||-----------------------|--------------|



Verse
Guitar 1:
D#||------------------------------|------------------------0~-----|
A#||------------------------------|--------------------------3~---|
F#||----------------------------5-|----------------------------4~-|
C#||--2----0~----2----0~------5---|--2----0~----2----0~-----------|
G#||--2--4~--4~--2--4~--4~--3-----|--2--4~--4~--2--4~--4~---------|
D#||--0----------0----------------|--0----------0-----------------|
                            . .


Guitar 2:
D#||------------------------------|------------------------0~-----|
A#||------------------------------|--------------------------3~---|
F#||----------------------------5-|----------------------------4~-|
C#||--2----------2------------5---|--2----------2-----------------|
G#||--2----------2----------3-----|--2----------2-----------------|
D#||--0----------0----------------|--0----------0-----------------|
                            . .


Guitar 1/2:
D#||-----------------------------------------------|
A#||-----------------------------------------------|
F#||--5--55--555-4--44--444-7--77--777-5--555--555-|
C#||--5--55--555-5--55--555-7--77--777-7--777--777-|
G#||--3--33--333-2--22--222-5--55--555-5--555--555-|
D#||-----------------------------------------------|


Guitar 1:
D#||------------------------------|------------------------0~-----|
A#||------------------------------|--------------------------3~---|
F#||----------------------------5-|----------------------------4~-|
C#||--2----0~----2----0~------5---|--2----0~----2----0~-----------|
G#||--2--4~--4~--2--4~--4~--3-----|--2--4~--4~--2--4~--4~---------|
D#||--0----------0----------------|--0----------0-----------------|
                            . .


Guitar 2:
D#||------------------------------|------------------------0~-----|
A#||------------------------------|--------------------------3~---|
F#||----------------------------5-|----------------------------4~-|
C#||--2----------2------------5---|--2----------2-----------------|
G#||--2----------2----------3-----|--2----------2-----------------|
D#||--0----------0----------------|--0----------0-----------------|
                            . .


Guitar 1/2:
D#||-----------------------------------------------|
A#||-----------------------------------------------|
F#||--5--55--555-4--44--444-7--77--777-5--555--555-|
C#||--5--55--555-5--55--555-7--77--777-7--777--777-|
G#||--3--33--333-2--22--222-5--55--555-5--555--555-|
D#||-----------------------------------------------|


Guitar 1:
D#||----------------------------------------------------------------------|
A#||--------------------------------------12--12--121212-15--1212--121212-|
F#||--12--1212--121212-11---1111--111111--12--12--121212-12--1212--121212-|
C#||--x---x-x---x-x-x--x----x-x---x-x-x-----------------------------------|
G#||--10--1010--101010-10---1010--101010----------------------------------|
D#||----------------------------------------------------------------------|


Guitar 2:
D#||-------------------------------------------|
A#||-------------------------------------------|
F#||-------------------------------------------|
C#||--2--22--2222--22--2222--55--5555--55--555-|
G#||--2--22--2222--22--2222--55--5555--55--555-|
D#||--0--00--0000--00--0000--33--3333--33--333-|



Chorus
Guitar 1:
D#||--------------------------------------------101010--------|
A#||--12-1212-101010-101010-888--12-1212-101010-101010-121212-|
F#||--12-1212-121212-121212-999--12-1212-121212--------121212-|
C#||----------------------------------------------------------|
G#||----------------------------------------------------------|
D#||----------------------------------------------------------|


D#||-------------------------------------------------------|
A#||------------------------101010-8-88-888-10-1010-101010-|
F#||--11-1111-111111-121212-111111-9-99-999-11-1111-111111-|
C#||--12-1212-121212-121212--------------------------------|
G#||-------------------------------------------------------|
D#||-------------------------------------------------------|


D#||--------------------------------------------101010--------|
A#||--12-1212-101010-101010-888--12-1212-101010-101010-121212-|
F#||--12-1212-121212-121212-999--12-1212-121212--------121212-|
C#||----------------------------------------------------------|
G#||----------------------------------------------------------|
D#||----------------------------------------------------------|


D#||-------------------------------------------|
A#||------------------------101010-88888888-10-|
F#||--11-1111-111111-121212-111111-99999999-11-|
C#||--12-1212-121212-121212--------------------|
G#||-------------------------------------------|
D#||-------------------------------------------|



Guitar 2:
D#||-----------------------------------------------------------------------|
A#||-----------------------------------------------------------------------|
F#||-------------------5-55-555-555-555-7-77-777-777-777-5-55-555-7-77-777-|
C#||--2-22-222-222-222-5-55-555-555-555-0-00-000-000-000-5-55-555-7-77-777-|
G#||--2-22-222-222-222-3-33-333-333-333-0-00-000-000-000-3-33-333-5-55-555-|
D#||--0-00-000-000-000-----------------------------------------------------|


D#||----------------------------------------------------------------|
A#||----------------------------------------------------------------|
F#||-------------------5-55-555-555-555-7-77-777-777-777-55555555-7-|
C#||--2-22-222-222-222-5-55-555-555-555-0-00-000-000-000-55555555-7-|
G#||--2-22-222-222-222-3-33-333-333-333-0-00-000-000-000-33333333-5-|
D#||--0-00-000-002-000----------------------------------------------|



Pre-Verse
Guitar 1:
D#||-------------------------------------------------------------------|
A#||-------------------------------------------------------------------|
F#||--1616--16--161414--14--14---------12--1212--121212-11-1111-7--777-|
C#||--x-x---x---x-x-x---x---x---x-x-x--x---x-x---x-x-x--x--x-x--x--xxx-|
G#||--1414--14--141212--12--12--x-x-x--10--1010--101010-9--9-9--5--555-|
D#||----------------------------x-x-x----------------------------------|


D#||-------------------------------------------------------------|
A#||-------------------------------------------------------------|
F#||--1616--16--161414--14--14--191919--19--1919--1212121212/14~-|
C#||--x-x---x---x-x-x---x---x---x-x-x---x---x-x---x-x-x-x-x-/x---|
G#||--1414--14--141212--12--12--171717--77777777--1010101010/12~-|
D#||-------------------------------------------------------------|


Guitar 2:
D#||-------------------------------------------------|
A#||-------------------------------------------------|
F#||-------------------------5--55--555--4--44--4444-|
C#||--22--2--222--2--2-------5--55--555--5--55--5555-|
G#||--22--2--222--2--2-------3--33--333--2--22--2222-|
D#||--00--0--000--0--0--000--------------------------|
                        ...

D#||-------------------------------------|
A#||-------------------------------------|
F#||--------------------------55555555-7-|
C#||--22--2--222--2--2--2222--55555555-7-|
G#||--22--2--222--2--2--2222--33333333-5-|
D#||--00--0--000--0--0--0000-------------|



Verse
Guitar 1:
D#||------------------------------|------------------------0~-----|
A#||------------------------------|--------------------------3~---|
F#||----------------------------5-|----------------------------4~-|
C#||--2----0~----2----0~------5---|--2----0~----2----0~-----------|
G#||--2--4~--4~--2--4~--4~--3-----|--2--4~--4~--2--4~--4~---------|
D#||--0----------0----------------|--0----------0-----------------|
                            . .


Guitar 2:
D#||------------------------------|------------------------0~-----|
A#||------------------------------|--------------------------3~---|
F#||----------------------------5-|----------------------------4~-|
C#||--2----------2------------5---|--2----------2-----------------|
G#||--2----------2----------3-----|--2----------2-----------------|
D#||--2----------2----------------|--2----------2-----------------|
                            . .


D#||-----------------------------------------------|
A#||-----------------------------------------------|
F#||--5--55--555-4--44--444-7--77--777-5--555--555-|
C#||--5--55--555-5--55--555-7--77--777-7--777--777-|
G#||--3--33--333-2--22--222-5--55--555-5--555--555-|
D#||-----------------------------------------------|


Guitar 1:
D#||------------------------------|------------------------0~-----|
A#||------------------------------|--------------------------3~---|
F#||----------------------------5-|----------------------------4~-|
C#||--2----0~----2----0~------5---|--2----0~----2----0~-----------|
G#||--2--4~--4~--2--4~--4~--3-----|--2--4~--4~--2--4~--4~---------|
D#||--0----------0----------------|--0----------0-----------------|
                            . .


Guitar 2:
D#||------------------------------|------------------------0~-----|
A#||------------------------------|--------------------------3~---|
F#||----------------------------5-|----------------------------4~-|
C#||--2----------2------------5---|--2----------2-----------------|
G#||--2----------2----------3-----|--2----------2-----------------|
D#||--0----------0----------------|--0----------0-----------------|
                            . .


D#||-----------------------------------------------|
A#||-----------------------------------------------|
F#||--5--55--555-4--44--444-7--77--777-5--555--555-|
C#||--5--55--555-5--55--555-7--77--777-7--777--777-|
G#||--3--33--333-2--22--222-5--55--555-5--555--555-|
D#||-----------------------------------------------|


Guitar 1:
D#||----------------------------------------------------------------------|
A#||--------------------------------------12--12--121212-15--1212--121212-|
F#||--12--1212--121212-11---1111--111111--12--12--121212-12--1212--121212-|
C#||--x---x-x---x-x-x--x----x-x---x-x-x-----------------------------------|
G#||--10--1010--101010-10---1010--101010----------------------------------|
D#||----------------------------------------------------------------------|


Guitar 2:
D#||---------------------------------------------------------|
A#||---------------------------------------------------------|
F#||---------------------------------------------------------|
C#||--2--22--2222--22--2222--55--5555--55--555---------------|
G#||--2--22--2222--22--2222--55--5555--55--555--///pick////--|
D#||--0--00--0000--00--0000--33--3333--33--333--////slide///-|



Chorus
Guitar 1:
D#||--------------------------------------------101010--------|
A#||--12-1212-101010-101010-888--12-1212-101010-101010-121212-|
F#||--12-1212-121212-121212-999--12-1212-121212--------121212-|
C#||----------------------------------------------------------|
G#||----------------------------------------------------------|
D#||----------------------------------------------------------|


D#||-------------------------------------------------------|
A#||------------------------101010-8-88-888-10-1010-101010-|
F#||--11-1111-111111-121212-111111-9-99-999-11-1111-111111-|
C#||--12-1212-121212-121212--------------------------------|
G#||-------------------------------------------------------|
D#||-------------------------------------------------------|


D#||--------------------------------------------101010--------|
A#||--12-1212-101010-101010-888--12-1212-101010-101010-121212-|
F#||--12-1212-121212-121212-999--12-1212-121212--------121212-|
C#||----------------------------------------------------------|
G#||----------------------------------------------------------|
D#||----------------------------------------------------------|


D#||---------------------------------------------------------|
A#||------------------------101010-88888888-1010101010101010-|
F#||--11-1111-111111-121212-111111-99999999-1111111111111111-|
C#||--12-1212-121212-121212----------------------------------|
G#||---------------------------------------------------------|
D#||---------------------------------------------------------|



Guitar 2:
D#||-----------------------------------------------------------------------|
A#||-----------------------------------------------------------------------|
F#||-------------------5-55-555-555-555-7-77-777-777-777-5-55-555-7-77-777-|
C#||--2-22-222-222-222-5-55-555-555-555-0-00-000-000-000-5-55-555-7-77-777-|
G#||--2-22-222-222-222-3-33-333-333-333-0-00-000-000-000-3-33-333-5-55-555-|
D#||--0-00-000-000-000-----------------------------------------------------|


D#||-----------------------------------------------------------------------|
A#||-----------------------------------------------------------------------|
F#||-------------------5-55-555-555-555-7-77-777-777-777-55555555-77777777-|
C#||--2-22-222-222-222-5-55-555-555-555-0-00-000-000-000-55555555-00000000-|
G#||--2-22-222-222-222-3-33-333-333-333-0-00-000-000-000-33333333-00000000-|
D#||--0-00-000-000-000-----------------------------------------------------|



Interlude
Guitar 1:
D#||---------------------------------------------------------------------------------------------|
A#||---------------------------------------------------------------------------------------------|
F#||----12-11-----------------12-11------------------12-11------------------12-11----14-12-10----|
C#||----------12~-------------------12~--------------------12~--------------------12----------12-|
G#||---------------------------------------------------------------------------------------------|
D#||--0--------------------10----------------------8---------------------10----------------------|


D#||---------------------------------------------------------------------------------------------|
A#||---------------------------------------------------------------------------------------------|
F#||----12-11------12-11------12-11-------12-11------12-11------12-11-------12-11----14-12-10----|
C#||----------12---------12---------12----------12---------12---------12----------12----------12-|
G#||---------------------------------------------------------------------------------------------|
D#||--0----------0---------10----------10----------8----------8----------10----------------------|


D#||---------------------------------------------------------------------------------|
A#||---------------------------------------------------------------------------------|
F#||----12-11------12-11------12-11-------12-11------12-11------12-11-------12-11----|
C#||----------12---------12---------12----------12---------12---------12----------12-|
G#||---------------------------------------------------------------------------------|
D#||--0----------0---------10----------10----------8----------8----------10----------|


Guitar 2:
D#||-----------------------------------------------------------------------------|
A#||-----------------------------------------------------------------------------|
F#||-----------------------7-7-7-7-----------------5-5-5-5---------------7-7-7-7-|
C#||--2-2-2-2--------------0-0-0-0-----------------5-5-5-5---------------0-0-0-0-| x2
G#||--2-2-2-2--------------0-0-0-0-----------------3-3-3-3---------------0-0-0-0-|
D#||--0-0-0-0--------------------------------------------------------------------|


Guitar 1/2:
D#||------------|
A#||------------|
F#||------------|
C#||--2---------|
G#||----------0-|
D#||------2-----|



Bridge
Guitar 1:
D#||------------------------------------------------------------------------|
A#||------------------------10----------------------12-10-------------------|
F#||--12-11-9------------------12-11----------------------12-10~------------|
C#||----------12~--------------------12~------------------------------------|
G#||------------------------------------------------------------------------|
D#||------------------------------------------------------------------------|


Guitar 2:
D#||------------------------------------------------------------------------|
A#||------------------------------------10----------------------12-10-------|
F#||-------------12-11-9-------------------12-11----------------------12-10-|
C#||---------------------12----------------------12-------------------------|
G#||------------------------------------------------------------------------|
D#||------------------------------------------------------------------------|


Guitar 1:
D#||--10----------12-10------|
A#||-----13-12-10------------|
F#||--------------------7~\--|
C#||-------------------------|
G#||-------------------------|
D#||-------------------------|


Guitar 2:
D#||--10---------------------|
A#||-----13-12-10~---b12r10~-|
F#||-------------------------|
C#||-------------------------|
G#||-------------------------|
D#||-------------------------|


Guitar 1:
D#||------------------------------------------------------------------------|
A#||------------------------10----------------------12-10-------------------|
F#||--12-11-9------------------12-11----------------------12-10~------------|
C#||----------12~--------------------12~------------------------------------|
G#||------------------------------------------------------------------------|
D#||------------------------------------------------------------------------|


Guitar 2:
D#||------------------------------------------------------------------------|
A#||------------------------------------10----------------------12-10-------|
F#||-------------12-11-9-------------------12-11----------------------12-10-|
C#||---------------------12----------------------12-------------------------|
G#||------------------------------------------------------------------------|
D#||------------------------------------------------------------------------|


Guitar 1:
D#||--15-14-12----------------|
A#||-----------15~----/17-15~-|
F#||--------------------------|
C#||--------------------------|
G#||--------------------------|
D#||--------------------------|


Guitar 2:
D#||--15-14-12---------15-14~-|
A#||-----------15~------------|
F#||--------------------------|
C#||--------------------------|
G#||--------------------------|
D#||--------------------------|


Guitar 3:
D#||------------------------------------------------------------------|
A#||------------------------------------------------------------------|
F#||--------------------------------------------------5-5-5-5-7-7-7-7-|
C#||--2-2-2-2-2-2-2-2-5-5-5-5-5-5-5-5-7-7-7-7-7-7-7-7-5-5-5-5-7-7-7-7-| x2
G#||--2-2-2-2-2-2-2-2-5-5-5-5-5-5-5-5-7-7-7-7-7-7-7-7-3-3-3-3-5-5-5-5-|
D#||--0-0-0-0-0-0-0-0-3-3-3-3-3-3-3-3-5-5-5-5-5-5-5-5-----------------|



Chorus / Outro
Guitar 1:
D#||----------------------------------------------|
A#||--12-12-12-12-12-12-12-12-10-10-10-10-8-8-8-8-|
F#||--12-12-12-12-12-12-12-12-11-11-11-11-9-9-9-9-|
C#||----------------------------------------------|
G#||----------------------------------------------|
D#||----------------------------------------------|


D#||--------------------------10-10-10-10-------------|
A#||--12-12-12-12-12-12-12-12-12-12-12-12-12-12-12-12-|
F#||--12-12-12-12-12-12-12-12-------------12-12-12-12-|
C#||--------------------------------------------------|
G#||--------------------------------------------------|
D#||--------------------------------------------------|


D#||--------------------------------------------------|
A#||--10-10-10-10-10-10-10-10-10-10-10-10-10-10-10-10-|
F#||--11-11-11-11-11-11-11-11-11-11-11-11-11-11-11-11-|
C#||--------------------------------------------------|
G#||--------------------------------------------------|
D#||--------------------------------------------------|


D#||------------------------------------------|
A#||--7-7-7-7-7-7-7-7-10-10-10-10-10-10-10-10-|
F#||--9-9-9-9-9-9-9-9-11-11-11-11-11-11-11-11-|
C#||------------------------------------------| x2
G#||------------------------------------------|
D#||------------------------------------------|


Guitar 2:
D#||------------------------------------------------------------------|
A#||------------------------------------------------------------------|
F#||------------------------------------------------------------------|
C#||--2-2-2-2-2-2-2-2-2-2-2-2-2-2-2-2-5-5-5-5-5-5-5-5-5-5-5-5-5-5-5-5-|
G#||--2-2-2-2-2-2-2-2-2-2-2-2-2-2-2-2-3-3-3-3-3-3-3-3-3-3-3-3-3-3-3-3-|
D#||--0-0-0-0-0-0-0-0-0-0-0-0-0-0-0-0-3-3-3-3-3-3-3-3-3-3-3-3-3-3-3-3-|


D#||------------------------------------------------------------------|
A#||------------------------------------------------------------------|
F#||------------------------------------------------------------------|
C#||--7-7-7-7-7-7-7-7-7-7-7-7-7-7-7-7-5-5-5-5-5-5-5-5-7-7-7-7-7-7-7-7-| x2
G#||--5-5-5-5-5-5-5-5-5-5-5-5-5-5-5-5-3-3-3-3-3-3-3-3-5-5-5-5-5-5-5-5-|
D#||--5-5-5-5-5-5-5-5-5-5-5-5-5-5-5-5-3-3-3-3-3-3-3-3-5-5-5-5-5-5-5-5-|


Guitar 1/2:
D#||------|
A#||------|
F#||--12~-|
C#||--12~-|
G#||--x---|
D#||--0-~-|




Tablature Legend
----------------
 h   - hammer-on
 p   - pull-off
 b   - bend
 r   - release bend
 *   - pinch harmonic
 '   - natural harmonic
 x   - mute note
 .   - palm mute
 /   - slide down
 \   - slide up
Tap to rate this tab
# A B C D E F G H I J K L M N O P Q R S T U V W X Y Z