Song name
# A B C D E F G H I J K L M N O P Q R S T U V W X Y Z

Silverstein - Departures tab

Tabbed by: Joshua Garcia (halofreak731@aol.com)

Tabs for the song: Departures by Silverstein
Please rate and let me know if you have any corrections. Thank you.


Tuning: Drop A# (A# F A# D# G C)


Guitar 1:
C ||-------|
G ||-------|
D#||-------|
A#||--3~---|
F ||--3~---|
A#||--3~---|


Guitar 1:
C ||------------------------------------------------|
G ||------------------------------------------------|
D#||--5~------------3~------------------------------|
A#||--5~------------3~------------3~------------0~--| x3
F ||--3~------------1~------------3~------------0~--|
A#||------------------------------3~------------0~--|


C ||--------------------|
G ||--------------------|
D#||--5~------------3~--|
A#||--5~------------3~--|
F ||--3~------------1~--|
A#||--------------------|


C ||----------------------------------|------|------|
G ||----------------------------------|------|------|
D#||--6~------------5~----------------|--3~--|------|
A#||--6~------------5~------------3~--|--3~--|--0~--| x2
F ||--4~------------3~------------3~--|--1~--|--0~--|
A#||------------------------------3~--|------|--0~--|




Guitar 1:
C ||-----------------------------------------------------------------------|
G ||----------6-----6---------5-----5----------10------10---------3-----3--|
D#||-----------------------------------------------------------------------|
A#||--------7-----7---------5-----5---------10------10----------3-----3----|
F ||--5~--------5-----3~--------3-----8~----------8-------1~--------1------|
A#||-----------------------------------------------------------------------|


C ||-------------------------------------------------------------------|
G ||----------6-----6---------5-----5---------3-----3---------3-----3--|
D#||-------------------------------------------------------------------|
A#||--------7-----7---------5-----5---------3-----3---------3-----3----| x3
F ||--5~--------5-----3~--------3-----1~--------1-----1~--------1------|
A#||-------------------------------------------------------------------|


Guitar 2:
C ||-----------------------------------------------------------------------|
G ||-----------------------------------------------------------------------|
D#||------------------5~--------------10~-----------------3~---------------|
A#||--0~--------------5~--------------10~-----------------3~---------------|
F ||--0~--------------3~--------------8-~-----------------1~---------------|
A#||--0~-------------------------------------------------------------------|


C ||-------------------------------------------------------------------|
G ||-------------------------------------------------------------------|
D#||------------------5~--------------3~--------------3~---------------|
A#||--0~--------------5~--------------3~--------------3~---------------| x3
F ||--0~--------------3~--------------1~--------------1~---------------|
A#||--0~---------------------------------------------------------------|




Guitar 1:
C ||------------------------------------------------------------------------------------|
G ||-----------11-------11----------11-------11----------10------10---------10------10--|
D#||------------------------------------------------------------------------------------|
A#||--------12-------12----------12-------12----------10------10---------10------10-----|
F ||--10~---------10-------10~---------10-------8~----------8-------8~---------8--------|
A#||------------------------------------------------------------------------------------|


C ||------------------------------------------------------|
G ||-----------15-------15----------15--------15---14~~~--|
D#||-----------------------------------------------x------|
A#||--------15-------15----------15--------15------x------|
F ||--13~---------13-------13~----------13---------13~~~--|
A#||------------------------------------------------------|


Guitar 2:
C ||------------------------------------------------------------------------------------|
G ||------------------------------------------------------------------------------------|
D#||------------------------------------------------------------------------------------|
A#||--5~-------------------5~-------------------3~------------------3~------------------|
F ||--5~-------------------5~-------------------3~------------------3~------------------|
A#||--5~-------------------5~-------------------3~------------------3~------------------|


C ||---------------------------|
G ||---------------------------|
D#||--3~-------------------3~--|
A#||--3~-------------------3~--|
F ||--1~-------------------1~--|
A#||---------------------------|



Guitar 1:
C ||------|
G ||--6~--|
D#||--x---|
A#||--7~--|
F ||--5~--|
A#||------|




Tablature Legend
----------------
 h   - hammer-on
 p   - pull-off
 b   - bend
 r   - release bend
 *   - pinch harmonic
 '   - natural harmonic
 x   - mute note
 .   - palm mute
 /   - slide down
 \   - slide up
Tap to rate this tab
# A B C D E F G H I J K L M N O P Q R S T U V W X Y Z