Song name
# A B C D E F G H I J K L M N O P Q R S T U V W X Y Z

Silverstein - One Last Dance tab

Tabbed by: Joshua Garcia (joshuag523@aol.com)

Tabs for the song: One Last Dance by Silverstein
Please rate and let me know if you have any corrections. Thank you.


Tuning: Drop C# (C# G# C# F# A# D#)


Intro
Guitar 1:
D#||------------------------------------------------|
A#||--------------------------------------------4~--|
F#||--6~------------9~------------4~------------2~--|
C#||--4~------------7~------------2~------------0~--|
G#||--4~------------7~------------2~------------0~--|
C#||--4~------------7~------------2~------------0~--|



Verse
Guitar 1/2:
D#||-------------------------------------------------------------------------|
A#||-------------------------------------------------------------------------|
F#||----------7\6-6-------------11\9-9\7----------7\6-6----------------------|
C#||------4---x\x-x---------9---x-\x-x\x-------4--x\x-x-------------2-----2--|
G#||------4---5\4-4-0-------9---9-\7-7\5-------4--5\4-4-0-----------2-----2--|
C#||--4-4-4-------------9-9-9--------------4-4-4------------2-2-2-2-2-2-2-2--|
      . .               . .                . .              . . . .   . .



Guitar 1:
D#||-------------------------------------------------------------------------|
A#||-------------------------------------------------------------------------|
F#||----------7\6-6-------------11\9-9\7----------7\6-6----------------------|
C#||------4---x\x-x---------9---x-\x-x\x-------4--x\x-x-------------2-----2--|
G#||------4---5\4-4-0-------9---9-\7-7\5-------4--5\4-4-0-----------2-----2--|
C#||--4-4-4-------------9-9-9--------------4-4-4------------2-2-2-2-2-2-2-2--|
      . .               . .                . .              . . . .   . .


Guitar 2:
D#||------------------------------------------------------------------------------|
A#||------------------------------------------------------------------------------|
F#||----------11\9-9\6-----------14\13-13\14----------11\9-9\6--------------------|
C#||------4---x-\x-x\x-------9---x-\x--x-\x--------4--x-\x-x\x-----------2-----2--|
G#||------4---9-\7-7\4-------9---12\11-11\12-------4--9-\7-7\4-----------2-----2--|
C#||--4-4-4--------------9-9-9-----------------4-4-4-------------2-2-2-2-2-2-2-2--|
      . .                . .                   . .               . . . .   . .



Pre-Chorus
Guitar 1/2:
D#||------------------------------------------------------------------|
A#||--------------5~----------------------5~----------------------5~--|
F#||--------------2~----------------------2~----------------------2~--|
C#||--0~----------0~----------0~----------0~----------0~----------0~--|
G#||--0~----------------------0~----------------------0~--------------|
C#||--0~----------------------0~----------------------0~--------------|


D#||-----------------------------------|
A#||-----------------------------------|
F#||-----------------------------------|
C#||----------------------------0-0-0--|
G#||--0-0-0-0-0-0-0-0-0-0-0-0-0-0-0-0--|
C#||--0-0-0-0-0-0-0-0-0-0-0-0-0-0-0-0--|
      . . . . . . . . . . .



Chorus
Guitar 1/2:
D#||-----------------------------------------------------------------------|
A#||-----------------------------------------------------------------------|
F#||--6666666666666666-9999999999999999-4444444444444444-2222222222222222--|
C#||--4444444444444444-7777777777777777-2222222222222222-0000000000000000--|
G#||--4444444444444444-7777777777777777-2222222222222222-0000000000000000--|
C#||--4444444444444444-7777777777777777-2222222222222222-0000000000000000--|


D#||------------------------------------------------------|
A#||------------------------------------------------------|
F#||--6666666666666666-9999999999999999-4444444444444444--|
C#||--4444444444444444-7777777777777777-2222222222222222--|
G#||--4444444444444444-7777777777777777-2222222222222222--|
C#||--4444444444444444-7777777777777777-2222222222222222--|


Guitar 1:
D#||-------------------------------|
A#||-------------------------------|
F#||--7777-9999-11111111-14141414--|
C#||--xxxx-xxxx-x-x-x-x--x-x-x-x---|
G#||--5555-7777-9-9-9-9--12121212--|
C#||-------------------------------|


Guitar 2:
D#||--------------------|
A#||--------------------|
F#||--2222222222222222--|
C#||--0000000000000000--|
G#||--0000000000000000--|
C#||--0000000000000000--|



Bridge
Guitar 1:
D#||------------12-------------------------------------12--------------------------|
A#||-------9-10------10-9-10---10-9-10-9----------9-10------10-9-10---10-9-10/12~--|
F#||--11---------------------------------11---9------------------------------------|
C#||-------------------------------------------------------------------------------|
G#||-------------------------------------------------------------------------------|
C#||-------------------------------------------------------------------------------|


D#||------------12-----------------------------------------------------------------|
A#||-------9-10------10-9-10---10-9-10-9-------------------------------------------|
F#||--11---------------------------------9----11111111-13131313-14141414-16161616--|
C#||------------------------------------------x-x-x-x--x-x-x-x--x-x-x-x--x-x-x-x---| x2
G#||------------------------------------------9-9-9-9--11111111-12121212-14141414--|
C#||-------------------------------------------------------------------------------|


Guitar 2:
D#||-----------------------------------------------------------------------|
A#||-----------------------------------------------------------------------|
F#||--6666666666666666-9999999999999999-4444444444444444-2222222222222222--|
C#||--4444444444444444-7777777777777777-2222222222222222-0000000000000000--| x2
G#||--4444444444444444-7777777777777777-2222222222222222-0000000000000000--|
C#||--4444444444444444-7777777777777777-2222222222222222-0000000000000000--|



Outro
Guitar 1:
D#||-------|
A#||-------|
F#||--14~--|
C#||--x----|
G#||--12~--|
C#||-------|


Guitar 2:
D#||------|
A#||------|
F#||--6~--|
C#||--4~--|
G#||--4~--|
C#||--4~--|




Tablature Legend
----------------
 h   - hammer-on
 p   - pull-off
 b   - bend
 r   - release bend
 *   - pinch harmonic
 '   - natural harmonic
 x   - mute note
 .   - palm mute
 /   - slide down
 \   - slide up
Tap to rate this tab
# A B C D E F G H I J K L M N O P Q R S T U V W X Y Z