Song name
# A B C D E F G H I J K L M N O P Q R S T U V W X Y Z

Silverstein - Call It Karma chords

Highlighted       Show chord diagrams
                Cadd9
Blame it on the weather
           Em
But I'm a mess
          Cadd9                     Em        G
And this February darkness, has me hating everyone
       Cadd9                             Em
And I know I need your comfort, but this drama makes me sick
         Cadd9                         Em            G
And the longer I lay here, I know it's harder to get up without you


Am           C
Lose another day here
              Em
Lose another year here
       G
I'm with you

                   C                       Em
Find me something out there, that's making sense
         C                            Em             G
And it's just another trend carefully hidden in your dress
        C                           Em
And the cycles neverending, and the fashions overdone
        C                            Em                G
And the further that I run away, the further I'll come back to shelter


Am           C
Lose another day here
              Em
Lose another year here
       G
I'm with you

C           Em
You are the fire, on my apartment floor
C          Em        G
Sixteen stories, I'd rather burn then fall
C          Em                      C
It isn't fate, that took us all by storm
C             Em         G
It's just the turn of a card

In this part you only have to play the chords during the acoustic solo.

Am           C
Lose another day here
              Em
Lose another year here
       G
I'm with you

C           Em
You are the fire, on my apartment floor
C          Em        G
Sixteen stories, I'd rather burn then fall
C          Em                      C
It isn't fate, that took us all by storm
C             Em         G
It's just the turn of a card

ok this part goes in this way:

e---------------------------------------------------------------|
B--------1----0-------------------------1----0------------------|
G---------------------2----0--2---------------------2-----0---2-|
D--------------------------------0-0-0----0-0--0-0----0-0---0---|
A---------------------------------------------------------------|
E-0-0-0----0-0--0-0----0-0---0----------------------------------|

This part goes twice.

e--------------------------------------------------------------------|
B--------------------------------------------------------------------|
G--------------------------------------------------------------------|
D--------12------10------9-------9----10-----------------------------|
A---10------10------10-----10--10--10--------------------------------|
E-8----8-------8-------8---------------------------------------------|


 Em           D
Goodbye, old friend
 C           C
Goodbye, goodnight

Em, Em, Em


          D
I'll move on
       C                  C
You'll call it fate, I'll call it karma
   Em        D      C
We had our time, it was fun
   C
While it lasted

Em, Em, Em

           D         C           C
I'll look back, with honor, and no regrets
  Em            D     C
I won't be mad, won't feel bad
       C
These memories will never leave me
Em        D
Don't be sad
       C              C
Cause life goes on, life goes on
Em            D
It's getting too late
C            C, C, C
Tomorrow is here

Em
Tap to rate this tab
# A B C D E F G H I J K L M N O P Q R S T U V W X Y Z