Song name
# A B C D E F G H I J K L M N O P Q R S T U V W X Y Z

Silverstein - When Broken Is Easily Fixed tab

----------------------------------------------------------------------------
			     When Broken Is Easily Fixed - Silverstein
----------------------------------------------------------------------------
Tabbed by:
Email:

Tuning:Drop D
   play this 2 times
e|-------------------------------------------------------------------------|
B|-------------------------------------------------------------------------|
G|----------------10-9-7-----------------10-9-12---9-----------10----------|
D|-3-2--0-0---0----x-x-x--3-2--0-0---0----x-x--x---x-(10 times)-x(10 times)|
A|-3-2--0-0---0----8-7-5--3-2--0-0---0----8-7-10---7------------8----------|
D|-3-2--0-0---0-----------3-2--0-0---0-------------------------------------|
       .....                  .....
   play this 2 times
e|-------------------------------------------------------------------|
B|----------6---6-----------6---6------------------------------------|
G|------------9---------------9------9--------------------10---------|
D|-0-0--0-0-------0-0--0-0-----------x(6 times)------------x(6 times)|
A|-0-0--0-0-------0-0--0-0-----------7-----------7h8-7p5---8---------|
D|-0-0--0-0-------0-0--0-0-------------------------------------------|
   ........       ........

e|-------------------------------------------------------------------------|
B|-------------------------------------------------------------------------|
G|-------------------------------------------------------------------------|
D|-------9-9----10-10--------10-------7-7-----9-9---------9----------------|
A|--7-7--7-7--8--8--8--8-8-8--8--5-5--5-5--7--7-7--7-7-7--7----------------|
D|-------------------------------------------------------------------------|
   ....      ..       .......   .....     ..      ......
e|-------------------------------------------------------------------------|
B|-------------------------------------------------------------------------|
G|-------------------------------------------------------------------------|
D|-0-0-0-0---0-0-0---0-0-0---0-0-0---0-0-0---0-0-0---0-0-0---0-0-0---------|
A|-0-0-0-0---0-0-0---0-0-0---0-0-0---0-0-0---0-0-0---0-0-0---0-0-0---------|
D|-0-0-0-0---0-0-0---0-0-0---0-0-0---0-0-0---0-0-0---0-0-0---0-0-0---------|
   ................................................................
e|-------------------------------------------------------------------------|
B|-------------------------------------------------------------------------|
G|-------------------------------------------------------------------------|
D|-8p7h8-10p8p7-8p7h8 10p8p7-8p7h8p7-8p7h8-10p8p7-8p7h8-10p8p7-8p7h8p7-----|
A|-------------------------------------------------------------------------|
D|-------------------------------------------------------------------------|

e|-------------------------------------------------------------------------|
B|-------------------------------------------------------------------------|
G|-------------------------------------------------------------------------|
D|--7h8p7-5h7p5-3h5p3-2h3p2-3h5p3-7h8p7-5h7p5-3h5p3-2h3p2-3h5p3------------|
A|-------------------------------------------------------------------------|
D|-------------------------------------------------------------------------|

e|-------------------------------------------------------------------------|
B|-------------------------------------------------------------------------|
G|-14----------15---------17----------15-----------12/14\10----------------|
D|--x(3 times)--x(3 times)-x(3 times)--x(3 times)---x--x-x-----------------|
A|-12----------13---------15----------13-----------10/12\8-----------------|
D|-------------------------------------------------------------------------|
I kinda half-assed this tab but most of it should be right.  listen to the song to find 
witch order to play the parts.
have fun =)
-Jesse

| /  slide up
| \  slide down
| h  hammer-on
| p  pull-off
| ~  vibrato
| +  harmonic
| x  Mute note
============================================================================
Tap to rate this tab
 
# A B C D E F G H I J K L M N O P Q R S T U V W X Y Z