Song name
# A B C D E F G H I J K L M N O P Q R S T U V W X Y Z

Silverstein - Red Light Pledge tab

Tabbed by: guitarfreak102
Comments? Email: eminemjr92@hotmail.com

Intro
E------------------------------------------------------------|
A------------------------------------------------------------|
D------------------------------------------------------------|
G------10-9----------10-9----------10-9---12-10--10-9--------|
B---10-----10-----10-----10-----10-----10------9-----10------|
E--0--0----------0--0----------8--8--------------------------|

Verse 1
E------------------------------------------------------------|
A------------------------------------------------------------|
D------------------------------------------------------------|
G--9---7-----5-----7-----------------------------------------|
B--7---5--2--2--3--2--2--5-----------------------------------|
E---------0--0-----0--0--------------------------------------|

Verse 2
E------------------------------------------------------------|
A------------------------------------------------------------|
D------------------------------------------------------------|
G-----9-----9---5---7----------------------------------------|
B--2--7--2--7---3---5----------------------------------------|
E--0-----0---------------0-----------------------------------|

Chorus
E------------------------------------------------------------|
A------------------------------------------------------------|
D------------------------------------------------------------|
G--4--7--9--12--11---4--7--5-----4--7--9--12--11---4--7--3---|
B--2--5--7--10--9----2--5--3-----2--5--7--10--9----2--5--3---|
E------------------------------------------------------------|


Verse 3
E------------------------------------------------------------|
A------------------------------------------------------------|
D------------------------------------------------------------|
G------------------------------------------------------------|
A--9--7--5--4--4---------------------------------------------|
E--7--5--3--2--2---------------------------------------------|

Verse 4
E------------------------------------------------------------|
A------------------------------------------------------------|
D------------------------------------------------------------|
G------------------------------------------------------------|
B--9--7--5---------------------------------------------------|
E--7--5--3---------------------------------------------------|

Verse 5
E------------------------------------------------------------|
A------------------------------------------------------------|
D------------------------------------------------------------|
G------------------------------------------------------------|
B--9--7--5---------------------------------------------------|
E--7--5--3---------------------------------------------------|

Outro
E------------------------------------------------------------|
A------------------------------------------------------------|
D------------------------------------------------------------|
G------------------------------------------------------------|
B--9~~7~~5---------------------------------------------------|
E--7~~5~~3---------------------------------------------------|
Tap to rate this tab
 
# A B C D E F G H I J K L M N O P Q R S T U V W X Y Z