Song name
# A B C D E F G H I J K L M N O P Q R S T U V W X Y Z

Silverstein - Friends In Fall River tab

Intro:
Guitar one:
e|-------------------------------------------------------|
b|-------------------------------------------------5h6p5-|
g|-------------------------------------------------------|
d|-10-X-X-10-X-10-12-X-12-X-12-8-X-8-X-8-10-X-10-10------|
a|-10-X-X-10-X-10-12-X-12-X-12-8-X-8-X-8-10-X-10-10------|
D|-10-X-X-10-X-10-12-X-12-X-12-8-X-8-X-8-10-X-10-10------| [x3]

Guitar two: (this part comes in on the second time through)
e|-12~~~12--12--12--12~~~14-12-11-12-11----14-14-12-12-11-11-12-12-11h12-11-|
b|--------12--12--12-------------------12~~---------------------------------|
g|--------------------------------------------------------------------------|
d|--------------------------------------------------------------------------|
a|--------------------------------------------------------------------------|
D|--------------------------------------------------------------------------|

Chourus:
e|---------------------------------------------|
b|---------------------------------------------|
g|---------------------------------------------|
d|-10-10-8-8-12-12-8-8-10-8-10--10-10-8-8-12---|
a|-10-10-8-8-12-12-8-8-10-8-10--10-10-8-8-12---|
D|-10-10-8-8-12-12-8-8-10-8-10--10-10-8-8-12---| [x4] (pause after each one)

There is three fillers inbetween. Filler one: drums
Filler two:       Filler three:
e|-5h6p5h6p5----| e|--------------|
b|----------7-6-| b|--------------|
g|--------------| g|--------------|
d|--------------| d|-X-X-X--X-X-X-|
a|--------------| a|-X-X-X--X-X-X-|
D|--------------| D|-X-X-X--X-X-X-|

Verse 1:
e|------------------------------------------------------------------------|
b|------------------------------------------------------------------------|
g|------------------------------/9-9-9-9-9-9-9----------------------------|
d|-7--7-7-7-7-7-7-7-7-7-7-7-7-7-/9-9-9-9-9-9-9-7--7-7-7-7-7-7-7-7-7-7-7-7-|
a|-7--7-7-7-7-7-7-7-7-7-7-7-7-7-/7-7-7-7-7-7-7-7--7-7-7-7-7-7-7-7-7-7-7-7-|
D|-7--7-7-7-7-7-7-7-7-7-7-7-7-7----------------7--7-7-7-7-7-7-7-7-7-7-7-7-|
 [pm] . . . . . . . . . . . . .                   . . . . . . . . . . . .
e|--------------------|
b|--------------------|
g|-/9-9-9-11-11-11-11-|
d|-/9-9-9-11-11-11-11-|
a|-/7-7-7-9--9--9--9--|
D|--------------------| [x2]

Chorus:

Verse 2:
Guitar one:
e|-------------------------------------------------------|
b|-------------------------------------------------5h6p5-|
g|-------------------------------------------------------|
d|-10-X-X-10-X-10-12-X-12-X-12-8-X-8-X-8-10-X-10-10------|
a|-10-X-X-10-X-10-12-X-12-X-12-8-X-8-X-8-10-X-10-10------|
D|-10-X-X-10-X-10-12-X-12-X-12-8-X-8-X-8-10-X-10-10------| [x4]

Guitar two:
e|-12--12--12--12--12--12--12--12--12--12--12--12---|
b|---12--12--12--12--12--12--12--12--12--12--12--12-|
g|--------------------------------------------------|
d|--------------------------------------------------|
a|--------------------------------------------------|
D|--------------------------------------------------|

e|-14-12-11-12-11--14-12-11-12-11h12p11h12p11-14-12-11-12-11---|
b|---------------12-----------------------------------------12-|
g|-------------------------------------------------------------|
d|-------------------------------------------------------------|
a|-------------------------------------------------------------|
D|-------------------------------------------------------------|

e|-14-14-12-12-11-11-12-12-11h12-11/-|
b|-----------------------------------|
g|-----------------------------------|
d|-----------------------------------|
a|-----------------------------------|
D|-----------------------------------|

Chourus:

Breakdown:
e|----------------------|
b|----------------------|
g|-------/9-----/9--/13-|
d|-2-2---/9-----/9--/13-|
a|-2-2---/7-----/7--/11-|
D|-2-2------------------|

Outro:
Guitar one:
e|-------------------------------------------------------------------|
b|-------------------------------------------------------------------|
g|-9-9-9-9-9-9-9-9-9-9-9-9-9-9-9-9-9-8-8-8-8-8-8-8-8-8-8-8-8-8-8-8-8-|
d|-9-9-9-9-9-9-9-9-9-9-9-9-9-9-9-9-9-8-8-8-8-8-8-8-8-8-8-8-8-8-8-8-8-|
a|-7-7-7-7-7-7-7-7-7-7-7-7-7-7-7-7-7-6-6-6-6-6-6-6-6-6-6-6-6-6-6-6-6-|
D|-------------------------------------------------------------------|

e|----------------------------------------------------------------|
b|----------------------------------------------------------------|
g|-13-13-13-13-13-13-13-13-13-13-11-11-11-11-11-11-11-11-11-11-11-|
d|-13-13-13-13-13-13-13-13-13-13-11-11-11-11-11-11-11-11-11-11-11-|
a|-11-11-11-11-11-11-11-11-11-11-9--9--9--9--9--9--9--9--9--9--9--|
D|----------------------------------------------------------------| [x5]

Guitar two:
On the first two times and last time do this on the fourth chord.
e|-------------------------------------|
b|-------------------------------------|
g|-11h13-13-11-13-11-11h13-11-11-11-11-|
d|-------------------------------------|
a|-------------------------------------|
D|-------------------------------------|
Third Time.
e|-12--14--16--14--12--14--16--14-16p14p12-12-|
b|---12--12--12--12--12--12--12---------------|
g|--------------------------------------------|
d|--------------------------------------------|
a|--------------------------------------------|
D|--------------------------------------------|
Fourth Time.
e|-12--14--16--14--12--12--12--16--16--16--16--16p14p12-12-|
b|---12--12--12--12--12--12--12--12--12--12--12------------|
g|---------------------------------------------------------|
d|---------------------------------------------------------|
a|---------------------------------------------------------|
D|---------------------------------------------------------|

That's it.
Tap to rate this tab
 
# A B C D E F G H I J K L M N O P Q R S T U V W X Y Z