Song name
# A B C D E F G H I J K L M N O P Q R S T U V W X Y Z

Silverstein - Always Never tab

Artist: Silverstein
Song: Always & Never



This isn't complete but it'll give you all the right idea.



Intro

e|----------------------------|-----------------------------|
B|----------------------------|-----------------------------|
G|-11-11-11-11--11-11-11-9-11-|-11-11-11-11--11-11-11-14-11-|
D|----------------------------|-----------------------------|
A|-9--9--9--9---9--9--9--7-9--|-9--9--9--9---9--9--9--12-9--|
D|----------------------------|-----------------------------|


e|-----------------------------|-----------------------------|
B|-----------------------------|-----------------------------|
G|-14-14-14-14--14-14-14-11-14-|-14-14-14-14--14-14-14-11-11-|
D|-----------------------------|-----------------------------|
A|-12-12-12-12--12-12-12-9--12-|-12-12-12-12--12-12-12-9--9--|
D|-----------------------------|-----------------------------|


e|----------------------------|-----------------------------|
B|----------------------------|-----------------------------|
G|-11-11-11-11--11-11-11-9-11-|-11-11-11-11--11-11-11-14-11-|
D|----------------------------|-----------------------------|
A|-9--9--9--9---9--9--9--7-9--|-9--9--9--9---9--9--9--12-9--|
D|----------------------------|-----------------------------|


e|-----------------------------|-------------------|
B|-----------------------------|-------------------|
G|-14-14-14-14--14-14-14-11-14-|-14-14-14-14--14-6-|
D|-----------------------------|-------------------|
A|-12-12-12-12--12-12-12-9--12-|-12-12-12-12--12-4-|
D|-----------------------------|-------------------|


Verse

e|-----------------------------------|-------------------------|
B|-----------------------------------|-------------------------|
G|-----------------------------------|-------------------------|
D|-4-4-4-4-4-4-4-4-4-4-4-4-4-4-4-4-7-|-------------------------|
A|-4-4-4-4-4-4-4-4-4-4-4-4-4-4-4-4-0-|-0-0-6-7/9-7-5-4-4/5-0-0-|
D|-4-4-4-4-4-4-4-4-4-4-4-4-4-4-4-4-0-|-0---------------------0-|


e|-----------------------------------|  Lead
B|-----------------------------------|  
G|-----------------------------------|  |-66667666-6667666-|
D|-4-4-4-4-4-4-4-4-4-4-4-4-4-4-4-4-7-|
A|-4-4-4-4-4-5-4-4-4-4-4-5-4-4-4-4-0-|
D|-4-4-4-4-4-4-4-4-4-4-4-4-4-4-4-4-0-|


Pre Chorus
           ...I can't beleive
e-----------------------------------------|-----------------|
B-----------------------------------------|-----------------|
G-----------------------------------------|-----------------|
D-9-9-9-9-9-9-9-9-9-9-5-5-5-5-5-5-5-5-5-5-|-----------------|
A-9-9-9-9-9-9-9-9-9-9-5-5-5-5-5-5-5-5-5-5-|-9\5-9\5-9\7-5/7-|
D|9-9-9-9-9-9-9-9-9-9-5-5-5-5-5-5-5-5-5-5-|-----------------|


Chorus & Breakdown    Ending

e|-----------------|  |------------------------|
B|-----------------|  |------------------------|
G|-4---------------|  |------------------------|
D|-4----0----5-(4)-|  |-0-0-0-4-4--0-0-0-4-4-4-|
A|-2----0----5-(4)-|  |-0-0-0-4-4--0-0-0-4-4-4-|
D|------0----5-(4)-|  |-0-0-0-4-4--0-0-0-4-4-4-|


Tabbed by ET
Tap to rate this tab
 
# A B C D E F G H I J K L M N O P Q R S T U V W X Y Z