Song name
# A B C D E F G H I J K L M N O P Q R S T U V W X Y Z

Silverstein - Smashed Into Peices tab

 This is a good song. here it is.

 ^ means to hammer.
Added Intro and other part

Intro:
E-12-12-12-12-12-12-12-12-11-11-11-11-11-11-11-12---------------E
B-13-13-13-13-13-13-13-13-13-13-13-13-13-13-13-13---------------B
g---------------------------------------------------------------g
d---------------------------------------------------------------d
a---------------------------------------------------------------a
e---------------------------------------------------------------e

E-12-12-12-12-12-12-12-12-11-11-11-11-11-11-11-12--------------E
B-9--9--9--9--9--9--9--9--9--9--9--9--9--9--9--9---------------B
g--------------------------------------------------------------g
d--------------------------------------------------------------d
a--------------------------------------------------------------a
e--------------------------------------------------------------e

E-12-12-12-12-12-12-12-12-11-11-11-11-11-11-11-12---------------E
B-13-13-13-13-13-13-13-13-13-13-13-13-13-13-13-13---------------B
g---------------------------------------------------------------g
d---------------------------------------------------------------d
a---------------------------------------------------------------a
e---------------------------------------------------------------e

E--11-11-11-11--11-11-11-11-------------------------------------E
B--11-11-11-11--11-11-11-11-------------------------------------B
g---------------------------------------------------------------g
d---------------------------------------------------------------d
a---------------------------------------------------------------a
e---------------------------------------------------------------e


verse:
 E-----------------------------------------------------E
 B-----------------------------------------------------B
 G-----------------------------------------------------G
 D-2-2--2--2-----------6-6--6--6--4--------------------D
 A-2-2--2--2---2-1---1-6-6--6--6---7-6-^7-6------------A
 E-0-0--0--0-------4---4-4--4--4-----------7-----------E
Never again!!!       Never again!!!

 E------------------------------------------------------E
 B------------------------------------------------------B
 G------------------------------------------------------G
 D-2-2--2--2-----------6-6-6-6--4-4--4-4----------------D
 A-2-2--2--2---2-1---1-6-6-6-6--4-4--4-4----------------A
 E-0-0--0--0-------4---4-4-4-4--2-2--2-2----------------E
With a knife....     Spine!!!

 E-----------------------------------------------------E
 B-----------------------------------------------------B
 G-----------------------------------------------------G
 D-2-2--2--2-----------6-6--6--6--4--------------------D
 A-2-2--2--2---2-1---1-6-6--6--6---7-6-^7-6------------A
 E-0-0--0--0-------4---4-4--4--4-----------7-----------E
     Mabe when      you find out that im dead.

 E------------------------------------------------------E
 B------------------------------------------------------B
 G------------------------------------------------------G
 D-2-2--2--2-----------6-6-6-6--4-4--4-4----------------D
 A-2-2--2--2---2-1---1-6-6-6-6--4-4--4-4----------------A
 E-0-0--0--0-------4---4-4-4-4--2-2--2-2----------------E
 You'de realize      what you did to me.

 Chorus:
 E--------------------------------------------------------------E
 B--------------------------------------------------------------B
 G----------------------------------------4---4--4--4---4---4---G
 D-6-6--6--6--2---2--2---2----2----2---2--4---4--4--4---4---4---D
 A-6-6--6--6--2---2--2---2----2----2---2--2---2--2--2---2---2---A
 E-4-4--4--4--0---0--0---0----0----0---0------------------------E
 And if my lungs still let me breathe. Would you be there for 

 E-------------------------------------------------------------E
 B-------------------------------------------------------------B
 G-------------------------------------------------------------G
 D-8-8--4-4-4-4------------------------------------------------D
 A-8-8--4-4-4-4------------------------------------------------A
 E-6-6--2-2-2-2------------------------------------------------E
  me?

 E--------------------------------------------------------------E
 B--------------------------------------------------------------B
 G----------------------------------------4---4--4--4---4---4---G
 D-6-6--6--6--2---2--2---2----2----2---2--4---4--4--4---4---4---D
 A-6-6--6--6--2---2--2---2----2----2---2--2---2--2--2---2---2---A
 E-4-4--4--4--0---0--0---0----0----0---0------------------------E
If I could make myself alive.           and give you back what

 E-------------------------------------------------------------E
 B-------------------------------------------------------------B
 G-------------------------------------------------------------G
 D-8-8--4-4-4-4------------------------------------------------D
 A-8-8--4-4-4-4------------------------------------------------A
 E-6-6--2-2-2-2------------------------------------------------E
you took aaa

 E-----------------------------------------------------E
 B-----------------------------------------------------B
 G-----------------------------------------------------G
 D-2-2--2--2-----------6-6--6--6--4--------------------D
 A-2-2--2--2---2-1---1-6-6--6--6---7-6-^7-6------------A
 E-0-0--0--0-------4---4-4--4--4-----------7-----------E
   No away let it gooo. 

 E------------------------------------------------------E
 B------------------------------------------------------B
 G------------------------------------------------------G
 D-2-2--2--2-----------6-6-6-6--4-4--4-4----------------D
 A-2-2--2--2---2-1---1-6-6-6-6--4-4--4-4----------------A
 E-0-0--0--0-------4---4-4-4-4--2-2--2-2----------------E
 Douse myself......         when you..

 E-----------------------------------------------------E
 B-----------------------------------------------------B
 G-----------------------------------------------------G
 D-2-2--2--2-----------6-6--6--6--4--------------------D
 A-2-2--2--2---2-1---1-6-6--6--6---7-6-^7-6------------A
 E-0-0--0--0-------4---4-4--4--4-----------7-----------E
 Save me when      you come in to the fire

 E------------------------------------------------------E
 B------------------------------------------------------B
 G------------------------------------------------------G
 D-2-2--2--2-----------6-6-6-6--4-4--4-4----------------D
 A-2-2--2--2---2-1---1-6-6-6-6--4-4--4-4----------------A
 E-0-0--0--0-------4---4-4-4-4--2-2--2-2----------------E
   I'de rather die  than have to see your smile

 Chorus:
 E--------------------------------------------------------------E
 B--------------------------------------------------------------B
 G----------------------------------------4---4--4--4---4---4---G
 D-6-6--6--6--2---2--2---2----2----2---2--4---4--4--4---4---4---D
 A-6-6--6--6--2---2--2---2----2----2---2--2---2--2--2---2---2---A
 E-4-4--4--4--0---0--0---0----0----0---0------------------------E
 And if my lungs still let me breathe. Would you be there for 

 E-------------------------------------------------------------E
 B-------------------------------------------------------------B
 G-------------------------------------------------------------G
 D-8-8--4-4-4-4------------------------------------------------D
 A-8-8--4-4-4-4------------------------------------------------A
 E-6-6--2-2-2-2------------------------------------------------E
  me?

 E--------------------------------------------------------------E
 B--------------------------------------------------------------B
 G----------------------------------------4---4--4--4---4---4---G
 D-6-6--6--6--2---2--2---2----2----2---2--4---4--4--4---4---4---D
 A-6-6--6--6--2---2--2---2----2----2---2--2---2--2--2---2---2---A
 E-4-4--4--4--0---0--0---0----0----0---0------------------------E
If I could make myself alive.           and give you back what

 E----------------------------11-^12-11----------------------------E
 B----------------------9-12---------------12-11-9-^11-9-----------B
 G-----------------------------------------------------------------G
 D-8-8--4-4-4-4--22------------------------------------------------D
 A-8-8--4-4-4-4--22------------------------------------------------A
 E-6-6--2-2-2-2--00------------------------------------------------E
you took    awayyyyyy

 E------11-^12-11-------------------------11-^12-11-----------------E
 B-9-12-----------12-11-10-^11-9--9-11--------------12-11-9--^11-9--B
 G------------------------------------------------------------------G
 D------------------------------------------------------------------D
 A------------------------------------------------------------------A
 E------------------------------------------------------------------E
  you made me swear                   you made me swear

 E---------7---6-7---------7---6-7---------7----7-6-------7----7-6--E
 B-9-9-9-9--9-9----9-9-9-9--9-9----7-7-7-7--7-7----7-7-7-7--7-7-----B
 G------------------------------------------------------------------G
 D------------------------------------------------------------------D x2
 A------------------------------------------------------------------A
 E------------------------------------------------------------------E
  Realize all these.........
 E-------------------------------------------------------------E
 B-------------------------------------------------------------B
 G-------------------------------------------------------------G
 D-2-2-2--2--2---6--6-6--6---6--4------------------------------D
 A-2-2-2--2--2---6--6-6--6---6--4------------------------------A
 E-0-0-0--0--0---4--4-4--4---4--2------------------------------E
suffacte........  you made me swear......

 E--5-5-5-5--3-3-3--3-3-3-3--0-0-0-0-1-------------------------------E
 B--5-5-5-5--3-3-3--3-3-3-3--0-0-0-0-1-------------------------------B
 G-------------------------------------------------------------------G
 D-------------------------------------------------------------------D
 A-------------------------------------------------------------------A
 E-------------------------------------------------------------------E

 E--5-5-5-5--3-3-3--3-3-3-3--0-0-0-0-1-------------------------------E
 B--5-5-5-5--3-3-3--3-3-3-3--0-0-0-0-1-------------------------------B
 G-------------------------------------------------------------------G
 D-------------------------------------------------------------------D
 A-------------------------------------------------------------------A
 E-------------------------------------------------------------------E

  Smash apart what you created!

 E---------------------------------------------------------------E
 B---------------------------------------------------------------B
 G---------------------------------------------------------------G
 D--6-6-6-6--4-4--4-4--2-2-2--4--4-4-4-4--4--4-------------------D
 A--6-6-6-6--4-4--4-4--2-2-2--4--4-4-4-4--4--4-------------------A
 E--4-4-4-4--2-2--2-2--0-0-0--2--2-2-2-2--2--2-------------------E

Chorus:
 E--------------------------------------------------------------E
 B--------------------------------------------------------------B
 G----------------------------------------4---4--4--4---4---4---G
 D-6-6--6--6--2---2--2---2----2----2---2--4---4--4--4---4---4---D
 A-6-6--6--6--2---2--2---2----2----2---2--2---2--2--2---2---2---A
 E-4-4--4--4--0---0--0---0----0----0---0------------------------E
 And if my lungs still let me breathe. Would you be there for 

 E-------------------------------------------------------------E
 B-------------------------------------------------------------B
 G-------------------------------------------------------------G
 D-8-8--4-4-4-4------------------------------------------------D
 A-8-8--4-4-4-4------------------------------------------------A
 E-6-6--2-2-2-2------------------------------------------------E
  me?

 E--------------------------------------------------------------E
 B--------------------------------------------------------------B
 G----------------------------------------4---4--4--4---4---4---G
 D-6-6--6--6--2---2--2---2----2----2---2--4---4--4--4---4---4---D
 A-6-6--6--6--2---2--2---2----2----2---2--2---2--2--2---2---2---A
 E-4-4--4--4--0---0--0---0----0----0---0------------------------E
If I could make myself alive.           and give you back what

 E-------------------------------------------------------------E
 B-------------------------------------------------------------B
 G-------------------------------------------------------------G
 D-8-8--4-4-4-4---2---------------------------------------------D
 A-8-8--4-4-4-4---2---------------------------------------------A
 E-6-6--2-2-2-2---0---------------------------------------------E
you took aaa    wayyyyyyyyy


That took me a long time so there!!!!!! WOOO!! WOO! WOO WOO!!
Tap to rate this tab
# A B C D E F G H I J K L M N O P Q R S T U V W X Y Z