Guitaretab - guitar tabs
Song name
# A B C D E F G H I J K L M N O P Q R S T U V W X Y Z

Silverstein - Waiting Four Years tab

+++++++++++++++++++++++++++++++++++
| Silverstein- Waiting Four Years |
+++++++++++++++++++++++++++++++++++

Tuning: EADGBe

Here is the COMPLETE version :D

Intro: Guitar 1
1.
e|---------------------------------------------------------------------|
B|---------------------------------------------------------------------|
G|---------7----------------7----------------7----------------7--------|
D|-----7-----7---7------7-----7---7------7-----7---7------7-----7---7--|
A|-5-5---5-----5----4-4---4-----4----5-5---5-----5----4-4---4-----4----|--x5
E|---------------------------------------------------------------------|

Guitar 2 
2.
e|-10-10-10-10-10-10-10--12--14-14-12\10---9--9--9--10-9--9--9---9--9--9--10-9--9--9---|
B|-10-10-10-10-10-10-10--10--10-10-10-10---10-10-10-10-10-10-10--10-10-10-10-10-10-10--|
G|-------------------------------------------------------------------------------------|
D|-------------------------------------------------------------------------------------|
A|-------------------------------------------------------------------------------------|--x4
E|-------------------------------------------------------------------------------------|

0:29
Guitar 1
3.
e|-----------------------------------2----|
B|------------------------5-55-----7---3--|
G|------7-77-----6-66-----4-44-----6------|
D|------7-77-----6-66-222-2-22-444-4------|
A|-5555-5-55-444-4-44---------------------|--x3
E|----------------------------------------|

Guitar 2
4.
e|-5555555-5-3-2-222/999-99-99-10-10-10-10-10-10-10-|
B|--------------------------------------------------|
G|--------------------------------------------------|
D|--------------------------------------------------|
A|--------------------------------------------------|--x3
E|--------------------------------------------------|

Guitar 1
"I asked to see you..."
5.
e|---------------------------------------|
B|---------------------------------------|
G|------7-77-----6-66--------------------|
D|------7-77-----6-66-55555555-55555555--|
A|-5555-5-55-444-4-44-55555555-55555555--|
E|--------------------33333333-33333333--|

Guitar 2
"I asked to see you..."
6.
e|-5555555-5-3-2-222---------------------|
B|---------------------------------------|
G|---------------------------------------|
D|--------------------55555555-55555555--|
A|--------------------55555555-55555555--|
E|--------------------33333333-33333333--|

Chorus: Guitar 1
7.
e|------2-33-22-000---------------------2-33-22-000--------------------|
B|-3--5-------------3333-2-222222--3--5-------------3333333-3-333-333--|
G|---------------------------------------------------------------------|
D|---------------------------------------------------------------------|
A|---------------------------------------------------------------------|
E|---------------------------------------------------------------------|

8.
e|------2-33-22-000---------------------2-33-22-000----------------------|
B|-3--5-------------3333-2-222222--3--5----------------------------------|
G|-----------------------------------------------------------------------|
D|--------------------------------------------------xx-5-xx-5-xx-5-xx-5--|
A|--------------------------------------------------xx-5-xx-5-xx-5-xx-5--|
E|--------------------------------------------------xx-3-xx-3-xx-3-xx-3--|

Chorus: Guitar 2
9.
e|--------------------------------------------------------------2----|
B|----------------------------------------------------------3-5---3--|
G|-7-7-77-6-666-666-----------------4-4-44-2-222-222-----------------|
D|-7-7-77-6-666-666-5-555-5-555555--4-4-44-2-222-222-5-5-55----------|
A|-5-5-55-4-444-444-5-555-5-555555--2-2-22-0-000-000-5-5-55----------|
E|------------------3-333-3-333333-------------------3-3-33----------|

10.
e|------------------------------------------------------------------------|
B|------------------------------------------------------------------------|
G|-7-7-77-6-666-666-----------------4-4-44-4-222-222----------------------|
D|-7-7-77-6-666-666-5-555-5-555555--4-4-44-4-222-222-xx-5-xx-5-xx-5-xx-5--|
A|-5-5-55-4-444-444-5-555-5-555555--2-2-22-0-000-000-xx-5-xx-5-xx-5-xx-5--|
E|------------------3-333-3-333333-------------------xx-3-xx-3-xx-3-xx-3--|

Verse: Guitar 1
"Life has passed me by..."
11.
e|----------------------------------------------------------------|
B|--3~------------------------------------------------------------|
G|----------------------------------------------------------------|
D|----------------------------------------------------------------|
A|----------------------------------------------------------------|
E|----------------------------------------------------------------|

"You beside me..."
12.
e|----------------------------------------------------------------|
B|--3~--------------------------------3\2~--------------2/5~------|
G|----------------------------------------------------------------|
D|----------------------------------------------------------------|
A|----------------------------------------------------------------|
E|----------------------------------------------------------------|

Verse: Guitar 2
13.
e|--------------------------------------------------------------------------|
B|--------------------------------------------------------------------------|
G|-44444444-44444444--------------------------------------------------------|
D|-44444444-44444444-55555555-55555555-44444444-44444444-22222222-22222222--|
A|-22222222-22222222-55555555-55555555-44444444-44444444-22222222-22222222--|--x2
E|-------------------33333333-33333333-22222222-22222222-00000000-00000000--|
[ Tab from: http://www.guitaretab.com/s/silverstein/77801.html ]
Pre-Chorus: Guitar 1
"More than Ill ever have..."
14.
e|---------------------------------------------------------------------------------|
B|--3-3-3h5p3-3333-3h5p3-3-3-3h5p3-3333-3h5p3-2-2-2h3p2-2222-2h3p2-5~----7-5-3-5~--|
G|---------------------------------------------------------------------------------|
D|---------------------------------------------------------------------------------|
A|---------------------------------------------------------------------------------|
E|---------------------------------------------------------------------------------|

15.
e|---------------------------------------------------------------------|
B|--3-3-3h5p3-3333-3h5p3-3-3-3h5p3-3333-3h5p3-2-2-2h3p2-2222-2h3p2-5~--|
G|---------------------------------------------------------------------|
D|---------------------------------------------------------------------|
A|---------------------------------------------------------------------|
E|---------------------------------------------------------------------|

Pre-Chorus: Guitar 2
16.
e|-----------------------------------------------------------------------|
B|-----------------------------------------------------------------------|
G|--4-4-444-4444-444-----------------------------------------------------|
D|--4-4-444-4444-444-5-5-555-5555-555-4-4-444-4444-444-2-2-222-2222-222--|
A|--2-2-222-2222-222-5-5-555-5555-555-4-4-444-4444-444-2-2-222-2222-222--|--x2
E|-------------------3-3-333-3333-333-2-2-222-2222-222-0-0-000-0000-000--|

Play chorus

Break: Guitar 1
17.
e|-------------------------------------------------------------------|
B|-------------------------------------------------------------------|
G|---------7----------------7----------------7----------------7------|
D|-----7-----7---7------7-----7---7------7-----7---7------7-----7----|
A|-5-5---5-----5----4-4---4-----4----5-5---5-----5----4-4---4--------|--x4
E|----------------------------------------------------------------5--|

Guitar 2
"Can you see me ?"
18.
e|------------------------------------------------|
B|------------------------------------------------|
G|--77x--------77x--------77x----77x----77x---77x-|
D|--77x--------77x--------77x----77x----77x---77x-|
A|--55x--------55x--------55x----44x----55x---44x-|
E|------------------------------------------------|

3:03
Guitar 1
"Can you see me ?"
19.
e|------------------------------------------------------------------------------|
B|------------------------------------------------------------------------------|
G|-----7----6666-6666-----7----6666-6666-----7----6666-6666-----7----6666-6666--|
D|---7--7-7-6666-6666---7--7-7-6666-6666---7--7-7-6666-6666---7--7-7-6666-6666--|
A|-55-5--5--4444-4444-55-5--5--4444-4444-55-5--5--4444-4444-55-5--5--4444-4444--|
E|------------------------------------------------------------------------------|

Guitar 2
20.
e|-------------------------------------------------------------------------------------|
B|-------------------------------------------------------------------------------------|
G|------77-77-----66-66------77-77-----66-66------77-77-----66-66------77-77-----66-66-|
D|------77-77-----66-66------77-77-----66-66------77-77-----66-66------77-77-----66-66-|
A|-5555-55-55-444-44-44-5555-55-55-444-44-44-5555-55-55-444-44-44-5555-55-55-444-44-44-|
E|-------------------------------------------------------------------------------------|

Guitar 1
"Everyday!"
21.
e|--------------------------------------|
B|-------------------55555555/77777777--|
G|--xx-7-77-666-666---------------------|
D|--xx-7-77-666-666---------------------|
A|--xx-5-55-444-444---------------------|--x4
E|--------------------------------------|

Guitar 2
22.
e|--------------------------------------|
B|-------------------55555555/77777777--|
G|--xx-7-77-666-666--44444444/66666666--|
D|--xx-7-77-666-666--22222222/44444444--|
A|--xx-5-55-444-444---------------------|--x4
E|--------------------------------------|

3:36
Guitar 1
"Everyday!!!"
23.                                          --> 24.
e|-----------------------------------------| --> |------------------------------------|
B|-----------------------------------------| --> |------------------------------------|
G|--x-x-x-7-77-666-666---------------------| --> |--xx-7-77-666-666-------------------|
D|--x-x-x-7-77-666-666---------------------| --> |--xx-7-77-666-666-------------------|
A|--x-x-x-5-55-444-444---------------------| --> |--xx-5-55-444-444-------------------|--x3
E|----------------------00000000/22222222--| --> |-------------------0000000/2222222--|

Guitar 2
25.                                          --> 26.
e|-----------------------------------------| --> |------------------------------------|
B|-----------------------------------------| --> |------------------------------------|
G|--x-x-x-7-77-666-666---------------------| --> |--xx-7-77-666-666-------------------|
D|--x-x-x-7-77-666-666--22222222/44444444--| --> |--xx-7-77-666-666--2222222/4444444--|
A|--x-x-x-5-55-444-444--22222222/44444444--| --> |--xx-5-55-444-444--2222222/4444444--|--x3
E|----------------------00000000/22222222--| --> |-------------------0000000/2222222--|

Ends With
Guitar 1
27.
e|------|
B|------|
G|--7~--|
D|------|
A|------|
E|------|

Lyrics:

I gave you everything,
but it just wasn't enough to make you stay. 
You said you'd give me time and space again. 
I asked to see you everyday.

Now I'm waiting four years 
just to feel your touch, 
waiting four whole years to say how much I care.
The flowers I gave you, died, lost and been thrown away, 
just like me. 

Life has passed me by,
reflected in my eye. 
Never again will I have 
you beside me, you to be there. 
The years behind cost 
more than I'll ever have. 

Now I'm waiting four years
just to hear your voice,
 waiting four whole years 
to lie right by your side.
I waited all this time,
just to see your smile. 
I waited all this time 
to say how much I care. 

Can you see me waiting for you everyday?

+++++++++++++++++++++++++++++++++
| RaiLeff                       |
| Underground__Dora@Hotmail.Com |
+++++++++++++++++++++++++++++++++
Related for Waiting Four Years tab
×
Waiting Four Years