Song name
# A B C D E F G H I J K L M N O P Q R S T U V W X Y Z

Silverstein - Sand Will Turn To Glass tab

Highlighted       Show chord diagrams
Silverstein
Sand Will Turn To Glass
Arrivals And Departures
2007
Submitted by: paramore_fans@yahoo.com

Key: E

Tuning: Standard EADGBe

Chords used:
C#m - x46654
A -   x02220
E -   022100
B -   x24442
F#m - 244222
G#m - 466444

Intro: Slow Beat
     C#m     A      E        F#m
e|---------|---|---------|---------|
B|---------|---|---------|---------|
G|----1----|---|----1----|---------|
D|-2-----4-|-2-|-2-----4-|-1--2--4-|
A|-4-------|-0-|-x-------|-x-------|
E|---------|---|-0-------|-2-------|

     C#m     A      E        G#m     A
e|---------|---|---------|---------|---|
B|---------|---|---------|---------|---|
G|----1----|---|----1----|---------|---|
D|-2-----4-|-2-|-2-----4-|-------4-|-2-|
A|-4-------|-0-|-x-------|-6--7----|-0-|
E|---------|---|-0-------|-4-------|---|


Verse 1: Beat switched to fast

Growl:
C#m
  I can't believe
that I can be

Sing:
A               B
Full of so much hate

Growl:
C#m
  Another hero dies
the devil wins

Sing:
    A                 G#m
The people hide their shame


Chorus:
C#m        E
Lies were spoken
A          B
Bones were broken
C#m    E    F#m
Can he ever change
C#m       E
Turn your back and
A
  Run away as
B
fast as you can
C#m     E         G#m
  Don't mark your name


Verse 2:

Growl:
C#m
  Half a dozen guns
All pointed straight

Sing:
A             B
At the hunted one

Growl:
C#m
  A misfired shell
You've shot the

Sing:
A              B
Only thing you love


(Repeat Chorus)


G#m
yeah


Interlude: C#m-E-A-B-C#m-E-F#m--C#m-E-A-B-C#m-E

Guitar 2: tr means tremolo effect
    C#m      E       A        B       C#m      E           F#m
e|-------|-7-----|-------|-9-7-----|-------|-7-------|----------16tr-|
B|-7-9-7-|---7-9-|-7-9-7-|-----9-7-|-7-9-7-|---7-9-7-|---------------|
G|-------|-------|-------|---------|-------|---------|-9-11-9-8------|
D|-------|-------|-------|---------|-------|---------|---------------|
A|-------|-------|-------|---------|-------|---------|---------------|
E|-------|-------|-------|---------|-------|---------|---------------|

    C#m      E       A        B       C#m       E
e|-------|-7-----|-------|-9-7-----|-------|-7-------|
B|-7-9-7-|---7-9-|-7-9-7-|-----9-7-|-7-9-7-|---7-9-7-|
G|-------|-------|-------|---------|-------|---------|
D|-------|-------|-------|---------|-------|---------|
A|-------|-------|-------|---------|-------|---------|
E|-------|-------|-------|---------|-------|---------|


G#m
yeah


Bridge:
A
Sunshine turns to
B             C#m
darkness everyday
The fragile's
E              A
born from honesty
       G#m
losing faith


Verse 3:

Growl:
C#m
  I can't believe
How suddenly

Sing:
A                 B
Guilty hearts can mend

Growl:
C#m
  I know myself
I've killed and

Sing:
A           B
I'll do it again


(Repeat Chorus)


G#m
yeah


Outro: C#m
Tap to rate this tab
 
# A B C D E F G H I J K L M N O P Q R S T U V W X Y Z