Guitaretab - guitar tabs
Song name
# A B C D E F G H I J K L M N O P Q R S T U V W X Y Z

Silversun Pickups - Booksmart Devil tab

THIS is how you do the main riff of the song

e|--------------------------------------------------------------------|
B|--------------------------------------------------------------------|
G|--------------------------------------------------------------------|
D|----6-6--9b10r9---------9b10r9--------------------------------------|
A|----4-4--7b8r7-----7-7--7b8r7---------------------------------------|
E|-------------------5-5----------------------------------------------|
[ Tab from: http://www.guitaretab.com/s/silversun-pickups/108315.html ]
e|--------------------------------------------------------------------|
B|--------------------------------------------------------------------|
G|--------------------------------------------------------------------|
D|----6-6--9b10r9----9s14--14-14s9--6-6-------------------------------|
A|----4-4--7b8r7-----7s12--12-12s7--7-7-------------------------------|
E|--------------------------------------------------------------------|

Clean part

e|------4-----4-----4-----4---5------0-----0-----0-----0--------------|
B|--------5-----5-----5---------5------0-----0-----0-----0------------|
G|----6-----6-----6-----6---6-----6------1-----1-----1-----1----------|
D|--------------------------------------------------------------------|
A|--------------------------------------------------------------------|
E|--------------------------------------------------------------------|

Solo

e|--------------------------------------------------------------------|
B|--------------------------------------------------------------------|
G|--------------------------------------------------------------------|
D|--------------------------------------------------------------------|
A|----4-4--7~----7s9h11b12r11----4-47b8r7--------7b8r7---------------|
E|--------------------------------------------5-5---------------------|


Related for Booksmart Devil tab