Song name
# A B C D E F G H I J K L M N O P Q R S T U V W X Y Z

Silversun Pickups - All The Go Inbetweens tab

Drop D Tuning

All the Go Inbetweens
Silversun Pickups


E|-------------------------------------------------------------|
B|-------------------------------------------------------------|
G|--7-7-7-7-7---7-7-7-7-7---7-7--------------------------------|
D|--7-7-7-7-7---5-5-5-5-5---4-4----7-------4^5^4---------------|
A|--5-5-5-5-5---5-5-5-5-5---5-5--------------------------------|
D|--0-0-0-0-0---0-0-0-0-0---0-0--------0-----------------------|


E|-------------------------------------------------------------|
B|-------------------------------------------------------------|
G|--7-7-7-7-7---7-7-7-7-7---7-7--------------------------------|
D|--7-7-7-7-7---5-5-5-5-5---4-4----7/9-------4^5^4-------------|
A|--5-5-5-5-5---5-5-5-5-5---5-5--------------------------------|
D|--0-0-0-0-0---0-0-0-0-0---0-0----------0---------------------|


E|---------------------------------------------------|
B|---------------------------------------------------|
G|--7-7-7-7-7---7-7-7-7-7---10--10--10-----7---------|
D|--7-7-7-7-7---5-5-5-5-5---10--10--10-----7---------|
A|--5-5-5-5-5---5-5-5-5-5---8---8----8-----5---------|
D|--0-0-0-0-0---0-0-0-0-0---------------------0------|



E|--------------------------------------------------|
B|--------------------------------------------------|
G|--7-7-7-7-7---7-7-7-7-7---7-7---------------------|
D|--7-7-7-7-7---5-5-5-5-5---4-4----7/9------4^5^4---|
A|--5-5-5-5-5---5-5-5-5-5---5-5---------------------|
D|--0-0-0-0-0---0-0-0-0-0---0-0----------0----------|

                                         2x
E|-----------------------------------------|
B|-----------------------------------------|
G|-----------------------------------------|
D|--------------4--------------------------|
A|--------5------------------5-------------|
D|-----0----0-------------0----0--0--------|
Tap to rate this tab
# A B C D E F G H I J K L M N O P Q R S T U V W X Y Z