Song name
# A B C D E F G H I J K L M N O P Q R S T U V W X Y Z

Silversun Pickups - Panic Switch tab

Sorry if this is hard to read.
This is most of the song tabbed by me from hearing the song.
P.M. me if you think there should be a change.

Intro(after bass solo)                   (08- 36 seconds)
e|-------------------------------------------------------|
B|-------------------------------------------------------|
G|-------------------------------------------------------| x2
D|3--3/--6--6/--8--8/--10--10-----3--3/--6--6/--8--8\--5-|
A|-------------------------------------------------------|
E|1--1/--4--4/--6--6/--8---8------1--1/--4--4/--6--6\--3-|

Riff
(36-52 seconds)
e|--------------------------------------------------------------------|
B|---xx-9--9--9-9----11-8--8h9---8----xx--8--8--8-8--8/9---6---8---6--|
G|--------------------------------------------------------------------|
D|--------------------------------------------------------------------|
A|--------------------------------------------------------------------|
E|--------------------------------------------------------------------|

e|--------------------------------------------------------------------|
B|---xx-9--9--9-9----11-8--8h9---8----xx--8--8--8-8--8----11^---------|
G|--------------------------------------------------------------------|
D|--------------------------------------------------------------------|
A|--------------------------------------------------------------------|
E|--------------------------------------------------------------------|


(bass from 51- 1:20)


Bridge
       (1:20- 1:27)                                      (1:27-1:34)
e|----------------------------|------------------------------------------|
B|----------------------------|xx--9--9--9--9-X3-----------11^-----------|
G|--------------5~----8~------|------(after third time add) -------------|
D|------5~------5~----8~------|------------------------------------------|
A|------5~------3~----6~------|------------------------------------------|
E|------3~--------------------|------------------------------------------|

Chorus Chords
(figure out timing in the song)(1:34- 2:04)
e|-------------4--------3---------------------------|
B|----6--------4--------4------1--------------------|
G|----6--------5--------5------0---OR---5-----------|x2(first and
D|----6--------6--------5------1--------5-----------|
A|----4--------6--------3------3--------6-----------|
E|-------------4------------------------8-----------|


Riff(2:04- 2:18)
Bass(2:18- 2:48)
Bridge (2:48- 3:02)
Chorus (3:02- 3:31)
Bass (3:31-4:00)

(I don't know the next solo part or the "waiting fading floating away" part but after 
it goes into chorus and then into the beginning with the bass.
Tap to rate this tab
# A B C D E F G H I J K L M N O P Q R S T U V W X Y Z