Song name
# A B C D E F G H I J K L M N O P Q R S T U V W X Y Z

Silversun Pickups - Its Nice To Know You Work Alone tab

    . -   . -   . -   .           . . -   . . -     . . -     . .    
e|---------------------------------------------------------------------------|
B|---------------------------------------------------------------------------|
G|---------------------------------------------------------------------------|
D|--7-5---7-5---7-5---7--5-7br--2/3-3-1---0-0-----5/7-7-5---5/7-7-5-7br------|
A|--------------------------------------------3------------------------------|
E|---------------------------------------------------------------------------|
      . . -   . . -     . . -     . . -
e|---------------------------------------------------------------------------|
B|---------------------------------------------------------------------------|
G|---------------------------------------------------------------------------|
D|--2/3-3-1---0-0-----5/7-7-5---5/7-7-5--------------------------------------|
A|----------------3----------------------------------------------------------|
E|---------------------------------------------------------------------------|

Key:
b   - bend
r   - bend release (if no number after the r, then release immediately)
/\  - slide into or out of (from/to "nowhere")
.   - staccato, hold note slightly shorter than regular value
-   - legato, hold note slightly longer than regular value

On the bends, in case I wasn't clear, bend back to 7 to end the note.  
If you listen to the song you can easily get the rhythm down.  
Hopefully I'll be able to add more soon.  Hope you guys enjoy.
Tap to rate this tab
 
# A B C D E F G H I J K L M N O P Q R S T U V W X Y Z