Song name
# A B C D E F G H I J K L M N O P Q R S T U V W X Y Z

Silversun Pickups - Its Nice To Know You Work Alone tab

-------------------------------------------------------------------------------
            It's Nice to Know You Work Alone - Silversun Pickups
-------------------------------------------------------------------------------
Tabbed by: Ahrum
Email: Themoogledance@hotmail.com
 
This is probably my favorite Silversun Pickups song, for its gritty 
grunge feel to it.  This is also a landmark for me and my guitaring,
for while this is a pretty simple song, I've actually completed my first
entire tab.  I've only been playing guitar for 8 months, mind you.

To get a good sound w/o pedals, I cut the tone to 0 on my guitar, use 
the rhythm pickups, and turn the treble and middle values on my amp to 
about 3 o'clock (12 o'clock being normal)... it's a pretty sick sound, 
and I enjoy playing that way.

UPDATE: I submitted this in Eb tuning, but in further listens of the song,
It's definitely in Drop D... my mistake

Feel free to e-mail me w/ comments.

Tuning: Drop D

e|--------------------------------------------------|
B|--------------------------------------------------|
G|--------------------------------------------------|
D|----7-5---7-5---7-5---7-5-7h8p7-3--3-1------------|
A|-----------------------------------------3h5-5-3--|
D|--------------------------------------------------|

e|--------------------------------------------------|
B|--------------------------------------------------|
G|--------------------------------------------------|
D|--5h7-7-5---7-7-5-7h8p7-3-3-1-------------7b------|
A|--------------------------------3h5-5-3-----------|
D|--------------------------------------------------|

     Main Riff
e|---------------------------------------------------------------------|
B|---------------------------------------------------------------------|
G|---------------------------------------------------------------------|
D|---------------------------------------------------------------------|
A|--5-5--5-5-5--5-5-5--5-5-5--5-5-5--5-5-5--5-5-5--5-5-5--5-1-1--1-1-1-|
D|--5-5--5-5-5--5-5-5--5-5-5--5-5-5--5-5-5--5-5-5--5-5-5--5-1-1--1-1-1-|

e|------------------------------------------------------------------------------|
B|------------------------------------------------------------------------------|
G|------------------------------------------------------------------------------|
D|------------------------------------------------------------------------------|
A|--1-1-1--1-1-1--1-5-5--5-5-5--5-5-5--5-5-5--5-1-1--1-1-1--1-3-3--3-3-3--3-5-5-|
D|--1-1-1--1-1-1--1-5-5--5-5-5--5-5-5--5-5-5--5-1-1--1-1-1--1-3-3--3-3-3--3-5-5-|

e|-----------------------------------------------------------------------|
B|-----------------------------------------------------------------------|
G|-----------------------------------------------------------------------|
D|-----------------------------------------------------------------------|
A|--5-5-5--5-5-5--5-5-5--5-1-1--1-1-1--1-1-1--1-1-1--1-5-5--5-5-5--5-5-5-|
D|--5-5-5--5-5-5--5-5-5--5-1-1--1-1-1--1-1-1--1-1-1--1-5-5--5-5-5--5-5-5-|

e|-------------------------------------------------------------------|
B|-------------------------------------------------------------------|
G|-------------------------------------------------------------------|
D|-------------------------------------------------------------------|
A|--5-5-5--5-1-1--1-1-1--1-3-3--3-3-3--3-5-5--5-5-5--5-5-5--5-5-5--5-|
D|--5-5-5--5-1-1--1-1-1--1-3-3--3-3-3--3-5-5--5-5-5--5-5-5--5-5-5--5-|
     End Main Riff

     Chorus
e|---------------------------------------------------------------------|
B|--3-----1--------------1-------3-----1-------------1-------------1---|
G|--x-----x-----3--------x-------x-----x-----3-------x-------3-----x---|
D|--5-----3-----1--------3-------5-----3-----1-------3-------1-----3---|
A|--5-----3-----1--------3-------5-----3-----1-------3-------1-----3---|
D|--5-----3-----1--------3-------5-----3-----1-------3-------1-----3---|
     End Chorus

e|--------------------------------------------------|
B|--------------------------------------------------|
G|--------------------------------------------------|
D|----7-5--x7-5--x7-5---7-5-7h8p7-3-3-1-------------|
A|----------------------------------------3h5-5-3---|
D|--------------------------------------------------|

e|---------------------------------|
B|---------------------------------|
G|---------------------------------|
D|----5h7-7-5---7-7-5-7h8p7p5-7----|
A|---------------------------------|
D|---------------------------------|


e|---------------------------------------------------------------------|
B|---------------------------------------------------------------------|
G|---------------------------------------------------------------------|
D|---------------------------------------------------------------------|
A|--1-1--1-1-1--1-1-1--1-1-1--1-5-5--5-5-5--5-5-5--5-5-5--5-1-1--1-1-1-|
D|--1-1--1-1-1--1-1-1--1-1-1--1-5-5--5-5-5--5-5-5--5-5-5--5-1-1--1-1-1-|

e|------------------------------------------------------------------------------|
B|------------------------------------------------------------------------------|
G|------------------------------------------------------------------------------|
D|------------------------------------------------------------------------------|
A|--1-3-3--3-3-3--3-5-5--5-5-5--5-5-5--5-5-5--5-1-1--1-1-1--1-1-1--1-1-1--1-5-5-|
D|--1-3-3--3-3-3--3-5-5--5-5-5--5-5-5--5-5-5--5-1-1--1-1-1--1-1-1--1-1-1--1-5-5-|

e|----------------------------------------------------------------------------------|
B|----------------------------------------------------------------------------------|
G|----------------------------------------------------------------------------------|
D|----------------------------------------------------------------------------------|
A|--5-5-5--5-5-5--5-5-5--5-1-1--1-1-1--1-3-3--3-3-3--3-5-5--5-5-5--5-5-5--5-5-5--5--|
D|--5-5-5--5-5-5--5-5-5--5-1-1--1-1-1--1-3-3--3-3-3--3-5-5--5-5-5--5-5-5--5-5-5--5--|

[Chorus]

       Solo
e|------------------------------------------------------------------------|
B|------------------------------------------------------------------------|
G|--------------------------------------------------------10-12-10--------|
D|----5/10-12--3-5/10-12--3-5/10-12--3-5/10-12--3-5-10-12----------12-10--|
A|------------------------------------------------------------------------|
D|------------------------------------------------------------------------|

e|-------------------------------------------------------------------|
B|-------------------------------------------------------------------|
G|-------------------------------------------------------------------|
D|----8---7b--5-7-5--3-5--3-5-------3-5/10-12--3-5/10-12--3-5/12\10--|
A|----------------------------5-3-5----------------------------------|
D|-------------------------------------------------------------------|

e|------------------------------------------------------------------------|
B|------------------------------------------------------------------------|
G|-------------------------10-12-10---------------------------------------|
D|----3-5/10-12--3-5-10-12----------12-10-8\3---8-7-8-7--7-5-5h7-5---3-5--|
A|------------------------------------------------------------------------|
D|------------------------------------------------------------------------|

e|-------------------------------------------------|
B|-------------------------------------------------|
G|----------10-12-10-------------------------------|
D|----10-12----------12-10-8---5h7b--5-7b-5--3-5---|
A|-------------------------------------------------|
D|-------------------------------------------------|
       End solo

e|----------------------------------------------------------------------|
B|----------------------------------------------------------------------|
G|----------------------------------------------------------------------|
D|----------------------------------------------------------------------|
A|---10-10--10-10-10--10-3-3--3-3-3--3-5-5--5-5-5--5-5-5--5-5-5--5-1-1--|
D|---10-10--10-10-10--10-3-3--3-3-3--3-5-5--5-5-5--5-5-5--5-5-5--5-1-1--|

e|------------------------------------------------------------------------|
B|------------------------------------------------------------------------|
G|------------------------------------------------------------------------|
D|------------------------------------------------------------------------|
A|----1-1-1--1-3-3--3-3-3--3-5-5--5-5-5--5-5-5--5-5-5--5-10-10--10-10-10--|
D|----1-1-1--1-3-3--3-3-3--3-5-5--5-5-5--5-5-5--5-5-5--5-10-10--10-10-10--|

e|--------------------------------------------------------------------------|
B|--------------------------------------------------------------------------|
G|--------------------------------------------------------------------------|
D|--------------------------------------------------------------------------|
A|---10-3-3--3-3-3--3-5-5--5-5-5--5-5-5--5-5-5--5-1-1--1-1-1--1-3-3--3-3-3--|
D|---10-3-3--3-3-3--3-5-5--5-5-5--5-5-5--5-5-5--5-1-1--1-1-1--1-3-3--3-3-3--|

e|--------------------------------------------------------------------|
B|--------------------------------------------------------------------|
G|--------------------------------------------------------------------|
D|--------------------------------------------------------------------|
A|----3-0-0--0-0-0--0-0-0--0-0-0--0-0-0--0-0-0-0-0-0-1-1-1-1-1-1-1-1--|
D|----3-0-0--0-0-0--0-0-0--0-0-0--0-0-0--0-0-0-0-0-0-1-1-1-1-1-1-1-1--|
                                         x x x x x x x x x x x x x x

[Chorus]

[Main Riff]


| /  slide up
| \  slide down
| h  hammer-on
| p  pull-off
| ~  vibrato
| +  harmonic
| x  Mute note
| b  bend
===============================================================================
Tap to rate this tab
# A B C D E F G H I J K L M N O P Q R S T U V W X Y Z